Oops, an error
Loading. Please wait.

Take Me To The River Bass Tab

version 1
version 1

Whole song

Interactive

26,737 views 66 this week
1 commentread comment
1 2 3 4 5
x 6
add to favorites
launch autoscroll
font size
0
reset
guitar tuner
Autoscroll
slow
fast
+/-
esc
set tempo
stop
Help us to improve Ultimate-Guitar.com Take our survey!
×
Author
Difficulty
novice
Talking Heads
Take Me to the River
Bassist: Tina Weymouth





Main Riff:
G:-----------------------------------------|   
D:-----------------------------------------|        
A:----7-7-9-7-10--9-7---7-7-9-7-10-7-9-7---|
E:-----------------------------------------|

"And I wanna know..."
G:-------------------------------------------------------------------------|
D:-------------------------------------------------------------------------|
A:--3--3-3--3-3-3-------------------------------7-7h9p7--7-7h9p7--7-7h9p7--|
E:-----------------3--3-3--3-3-3---3-3h5--3-3h5----------------------------|

"Hug Me, Squeeze Me..." 
G:-------------------------------------|
D:----------------2-4------------------|
A:--4--0-2-4---0-----------------------|
E:-------------------------------------|

"'til I can't, 'til I can't..."
G:-------------|
D:-------------|
A:-------------|
E:-3-3-3-3-3-3-|

Ending:
G:------------|
D:------------|
A:---5--4--2--|
E:------------|
Suggest correction
comments
print report bad tab
1 comment total.
0 reply
erind99 10 4 days ago

I thought it end on E?

guest
You may want to rate the tab now too:
select rating
Wanna post a correction for this tab? Suggest correction