Oops, an error
Loading. Please wait.

Take Me To The River Bass Tab

version 2
version 2

Whole song

Interactive

3,620 views 27 this week
no commentswrite comment
1 2 3 4 5
excellent!
x 3
add to favorites
launch autoscroll
font size
0
reset
guitar tuner
Autoscroll
slow
fast
+/-
esc
set tempo
stop
Help us to improve Ultimate-Guitar.com Take our survey!
×
Author
Difficulty
intermediate
-------------------------------------------------------------------------------
                   Take Me To The River - Talking Heads
-------------------------------------------------------------------------------
Tabbed by: Captain Gooch
E-mail: kpears11@yahoo.com

Tuning: Standard

Main Bass Line, Verse and Chorus:
G:-----------------------------------------|   
D:-----------------------------------------|        
A:----7-7-9-7-10--9-7---7-7-9-7-10p7-9p7---|
E:-----------------------------------------|

Post-Verse:
G:---------5--------------------------------------------------------|
D:--------------------5---------------------------------------------|
A:--3-x--3---3---x-------------3---5---3---7-7h9p7-7-7h9p7-7-7h9p7--|
E:-------------3----3----3-5-3---3---5---5--------------------------|

Bridge: 
G:-------4-p6------------------4-p6------------|
D:-----6------------5-7\-----6------------5-7--|
A:--4-------------7-------4-------------7------|
E:-------------5---------------------5---------|

G:------------------------------------------------------------------|
D:------------------------------------------------------------------|
A:--5-5-5--7-7h9p7-7-7h9p7-7-7h9p7-7-7h9p7-7-7h9p7-7-7h9p7-7-7h9p7--|
E:------------------------------------------------------------------|

Ending:
G:------------|
D:----5----2--|
A:--7----2----|
E:------------|


| /  slide up
| \  slide down
| h  hammer-on
| p  pull-off
| ~  vibrato
| +  harmonic
| x  Mute note
===============================================================================
Suggest correction
Give kudos to tab author, rate the tab!
1 2 3 4 5
comments
print report bad tab
guest
You may want to rate the tab now too:
select rating
Wanna post a correction for this tab? Suggest correction