Oops, an error
Loading. Please wait.

This Must Be The Place Naive Melody Bass

version 1
version 1

Whole song

Interactive

22,601 views 39 this week
5 commentsread comments
1 2 3 4 5
x 14
add to favorites
launch autoscroll
font size
0
reset
guitar tuner
Autoscroll
slow
fast
+/-
esc
set tempo
stop
[Main riff]
G|-----------------------------------------------------------------------|
D|---5-5--5----------3-3--3----------------------------------------------|
A|----------2-2-------------2-2------------------------------------------|
E|--------------0-2-------------0-2--------------------------------------|
Suggest correction
comments
print report bad tab
5 comments total. Showing first comments.
+8 reply
CoheedFan28 469 Aug 08, 2011 08:14 PM

G-------------------0-2------------0-2------------------------
D---------------2-2------------2-2----------------------------
A--------5-5--5---------3-3--3--------------------------------
E-------------------------------------------------------------

+2 reply
[Wampus] 10 Jan 04, 2013 01:06 PM

a bit easier like this but just my opinion

G-------------------0-2------------0-2------------------------
D---------0-0--0-2-2------------2-2---------------------------
A-----------------------3-3--3--------------------------------
E-------------------------------------------------------------

0 reply
[Wampus] 10 Jan 04, 2013 01:08 PM

well the comment thing messed it up a bit but you get the idea

guest
You may want to rate the tab now too:
select rating
Wanna post a correction for this tab? Suggest correction