Oops, an error
Loading. Please wait.

With Our Love tab

version 1
version 1

Whole song

3,009 views 3 this week
1 commentread comment
1 2 3 4 5
1 last vote to show rating
add to favorites
×
Save as Personal and add changes to this tab that will be seen only by you. Learn more ›
×
You can save this tab as Personal to edit and correct it or add notes. All changes will be seen only by you. Learn more »
launch autoscroll
font size
0
reset
how to read this tab
guitar tuner
edit
Autoscroll
slow
fast
+/-
esc
set tempo
stop
Talking Heads - With Our Love

(Main Riff)

   Gm          Am          Bbm
e--------------------------------------------------|
B--------------------------------------------------|
G------0-----3-----5-----5-----6-----6-----6-----6-|
D--3h5---3h5---3h5---3h5---6h8---6h8---6h8---6h8---|
A--------------------------------------------------|
E--------------------------------------------------|

   Gm          Am          Gm
e--------------------------------------------------|
B--------------------------------------------------|
G------0-----3-----5-----5-----0-----0-----0-----0-|
D--3h5---3h5---3h5---3h5---3h5---3h5---3h5---3h5---|
A--------------------------------------------------|
E--------------------------------------------------|

It's just a look, and it makes the boys quiver.
Yes, it's just the look, and now they remember.


(2nd guitar part before start of 2nd verse, play higher two strings of this chord 
don't play in intro)
   Bbm         Cm          Dbm
   Bbm         Cm          Bbm


  E           D
                        Repeat
e-0--4---4----2--2---2---|
B-0----5---5--3----3---3-|
G-1-----------2----------|
D-2-----------0----------|
A-2----------------------|
E-0----------------------|

Had they forgotten ... what this all means?

Gm  Am  Bbm
Gm  Am  Gm

I think they want to forget,
And they hope that this time, this time.

(CHORUS) (too hard to tab for chord changes)
A E A E
I won't look

G E G E
I've got other things to do now.

I forgot what it was, I've got to get to work now.
(And they) set an example for us (I see it!).
It can happen to me too.
(And it) didn't make any difference to us (But I)

G E G E
Forgot the trouble, that's the trouble.
Forgot the trouble, that's the trouble.
Forgot the trouble, that's the trouble.
Forgot the trouble, that's the trouble.

   Am                  E                   Am                          Repeat
e--8----8----8----8----7----7----7----7----8----8----8----8----8----8----8----8----|
B----10---10---10---10---10---10---10---10---10---10---10---10---10---10---10---10-|
G----------------------------------------------------------------------------------|
D----------------------------------------------------------------------------------|
A----------------------------------------------------------------------------------|
E----------------------------------------------------------------------------------|

   With                our                 love,


With our love,
With our love.


(Cool lick leading to riff)
e----------------|
B--8-8--8/10-----|
G--7-7--7/9----9-|
D--------------9-|
A----------------|
E----------------|


[Go to Main Riff, play 2nd guitar part]

Someone get the lyrics right, there's much more to this song than what's on lyrics sites.

Tabbed by Dan Mooney
Suggest correction
Creating personal tab
Creating personal tab
You can edit any tab online and save it as your Personal.

You can edit, replace or remove any tab part or add personal notes – all changes will be seen only by you.

Personal tabs can be accessed anytime from any device, even offline.
Learn more »
Give kudos to tab author, rate the tab!
1 2 3 4 5
comments
print report bad tab
1 comment total.
0 reply
Aquamenti 50 Jan 29, 2011 03:37 AM

This is a very good tab.
I think the intro/main riff is like though

Gm          Am          Bbm
e--------------------------------------------------|
B--------------------------------------------------|
G------3-----3-----5-----5-----6-----6-----6-----6-|
D--3h5---3h5---5h7---5h7---6h8---6h8---6h8---6h8---|
A--------------------------------------------------|
E--------------------------------------------------|

Gm Am Gm
e--------------------------------------------------|
B--------------------------------------------------|
G------3-----3-----5-----5-----3-----3-----3-----3-|
D--3h5---3h5---5h7---5h7---3h5---3h5---3h5---3h5---|
A--------------------------------------------------|
E--------------------------------------------------|

guest
Wanna post a correction for this tab? Suggest correction