Oops, an error
Loading. Please wait.

T 0 tab

version 1
version 1

Whole song

2,490 views 6 this week
2 commentsread comments
1 2 3 4 5
x 3
add to favorites
×
Save as Personal and add changes to this tab that will be seen only by you. Learn more ›
×
You can save this tab as Personal to edit and correct it or add notes. All changes will be seen only by you. Learn more »
launch autoscroll
font size
0
reset
how to read this tab
guitar tuner
edit
Autoscroll
slow
fast
+/-
esc
set tempo
stop
Author
Difficulty
-------------------------------------------------------------------------------
                                       T=0 - Tall Ships
-------------------------------------------------------------------------------
Tabbed by: SomaGuye
E-mail: nintymaniac@hotmail.co.uk

Tuning: E standard

This song only has a couple of guitar parts and they aren't very difficult to
hear, so here is just each part tabbed out, and you can listen to the song for
the exact phrasing and order.

This is the main riff repeated throughout most of the song.

e--------------------|
B--------------------|
G----------------14--|
D---------14---------|
A-------------15-----|
E--13--13------------|

Underneath the main riff at parts he just plays the same as the main riff, but
omitting the last note and also an octave down.

e--------------------|
B--------------------|
G--------------------|
D-------2------------|
A----------3---------|
E--1--1--------------|

This little flourish gets played at the end of a few main passages.

e--------------------|
B--------------------|
G-----------14-------|
D-----14-------14----|
A--------15-------15-|
E--13----------------|

These are the clean chords that get played in the mid section.

e--------------------|
B--------------------|
G------5---7---------|
D--3---5---7---------|
A--3---3---5---------|
E--1-----------------|
Suggest correction
Creating personal tab
Creating personal tab
You can edit any tab online and save it as your Personal.

You can edit, replace or remove any tab part or add personal notes – all changes will be seen only by you.

Personal tabs can be accessed anytime from any device, even offline.
Learn more »
Give kudos to tab author, rate the tab!
1 2 3 4 5
comments
print report bad tab
2 comments total.
-1 reply
spectrum- 154 Aug 18, 2014 01:12 PM

The riff is much easier to play at the 8th fret in Amaj7 shape or 3rd fret in Dmaj7 shape.

e -------------------|---------5------|
B -------------------|-------5---5----|
G -------9------9----|---3-3----------|
D ----------10-------|----------------|
A ---8-8-------------|----------------|
E -------------------|----------------|

0 reply
FauxManticore 31 Sep 20, 2016 05:57 AM

nice work! :)

guest
You may want to rate the tab now too:
select rating
Wanna post a correction for this tab? Suggest correction