Oops, an error
Loading. Please wait.

And bass

286 views 1 this week
1 commentread comment
1 2 3 4 5
1 last vote to show rating
add to favorites
×
Save as Personal and add changes to this tab that will be seen only by you. Learn more ›
×
You can save this tab as Personal to edit and correct it or add notes. All changes will be seen only by you. Learn more »
launch autoscroll
font size
0
reset
guitar tuner
edit
Autoscroll
slow
fast
+/-
esc
set tempo
stop
Author
Difficulty
-------------------------------------------------------------------------------
                             & - Tally Hall
-------------------------------------------------------------------------------
Bass tab

Tabbed by: Victor Prieto punyidea
E-mail: vsprieto-at-gmail.com
Feel free to email me about corrections.

Tuning: Standard
 

(A)     (G)      (F#) 
Love    of the   Sun

{There's lots of fuzz so the octaves may just be a single note. Asterisks indicate alternate paths to play}

  (bm)      (E)     (bm)      (E)        (G)       (C)          (F#)  
  Came back again to make it   clear that he never said it would be demand
G|----------------------4-4---4------1-2/-7-7---7--5--5-------5------------------|
D|-------------2-2----2---------2-4-----------------------------4-4-----4--------|
A|-2-2-------2---------(2)----------------------------------------------------1--|
E|------------(0)---------------------------------------------------------2-4---2|

  (bm)      (E)      (bm)      (E)          (G)         (A)        
  Shame on a martyr   claiming friends from [I, the?] perspective of
G|---------------------4-4-----4-----1-2/------------------------------------|
D|-------------2-2---2-----------2-4---------5-5--------5(7)------7----------|
A|-2-2------2----------------------------------------------------------------|
E|------------(0)---------------------------(3)---------3-5-5-----5----------|
 
  (B)  {Hard to hear}
   &
G|-------------8-11-----------|
D|-------7-9-11---------------|
A|---6-9----------------------|
E|-7--------------------------|


   em                 B               em7      A7      B
   Weak & strong &    wet &  dry &    Right &  wrong & live   & die &
G|-12-12-----------------------------------------------------------------|
D|-------(14)------11-----------------------9----------9-----(9)-9-9-----|
A|----------14-14----9-9----6----6----7-7----10-10-----------------------|
E|--------12-----------------7-9---7--------------------7-7---7----------|

    em              B                      c#dim    *        *        F#7
    Sane   & gone & love & not     & All   the &s   that we  for-got  so
G|--------------------------------------------------------9-9---9------------|
D|-9---------9-9----------9-------------------------------------------8------|
A|--10-10---7------9-----------6-----10-10----10-7-7----7--------9-11---9(\)-|
E|------------------7-7----7-9---7--------------(0)--------------------------|



   (bm)           (E)      (bm)    (E)        G            C               F#     
   Sing while you hear it; don't deny it      Leave if you can't stand the thought of it
G|-------------------------(4)----4-----1-2/---------------------------------------------------|
D|----------------2-2-----2----------2-4------5-5-------5--3-3-----------3-4-4-----------------|
A|-2-2----------2-----------2-2-------------------------------------------------------4-----1--|
E|-------------------------------------------(3)----------------------------------------2-4--2-|
                                                        Optional B|------------------(2)-------|

  bm         E        bm          E           G        A           B
  Come back  again to make things [sin?] with no disrespect to the &
G|---------------------4-4-----4------1-2-------------------------------------8-11|
D|-------------2-2---2------------2-4---------5-5-----5-7-7----(7)------7-9-11----|
A|-2-2-------2------------------------------------------------------6-9-----------|
E|-------------0-0---------------------------(3)-----(3)5)------5--7--------------|


   em                B                 em7      A7     B
   High & low &      new & old    &    Stop &   go &   hot & cold &
G|-12-12-----------------------------------------------------------------|
D|--------(14)------11--------------------------7-7----9-----(9)-9-9-----|
A|-----------14-14----9-9----6----6-9--10-10--10-------------------------|
E|---------12-----------------7-9---------------------7--7----7----------|


      em           B                   c#dim     *       *         F#7
      John & Yoko, dark & light it's almost time to  say goodnight to 
G|----------------------------------------------------------9-9---9------------|
D|-9-----------9-9----------9-------------------------------------------8------|
A|----10-10---7------9-----------6-----10-10----10-7-7----7--------9-11---9(\)-|
E|---------------------7-7----7-9---7-------------(0)--------------------------|


   bm       {Guitar solo}
   it       E        bm       E        G          C        F#
G|---------------------------------1-2/--7(7)---7-5(5)----5---------------|
D|----------2(2)-----2----------2-4------------------------4-4------------|
A|-2------2------------2-2-----2---------------------------------4----1---|
E|----------------------------------------------------------------2-4---2-|

   bm          E       bm        E         G        A            B     
G|---------------------4-4-----4-----1-2/-(0)-----------------------------9-6|
D|-------------2-2---2-----------2-4-------5-5--------5-7----7---9-9-----9---|
A|-2-2------2---------------------------------------------------------6-9----|
E|-------------0-0------------------------(3)---------3-5----5-------7-------|

  

  (bm)        (E)    (bm)       (E)       (G)           (C )          (F#7) 
  They took a lesson from their fathers    Told them that they were the same command
G|----------------------(4)----4-----1-2-------------------------------------------------|
D|-------------2-2-----2----------2-4------5-5---------5--3-3---------3-4-4--------------|
A|-2---------2-----------2-2----------------------------------------------------4-----1--|
E|----------------------------------------(3)-------------------------------------2-4--2-|
                                                     Optional B|---------------(2)-------|

   bm             E        bm     E            G             A           B
   Wait for their minds to make complete their Lies [stood beside] every &
G|-------------------------4-4-----4-----1-2----------------------------------------8-11|
D|-----------------2-2---2-----------2-4-------5-5-----5-7-7---------(7)------7-9-11----|
A|-2-2-----------2--------------------------------------------------------6-9-----------|
E|-----------------0-0------------------------(3)-----(3)5)-----------5--7--------------|


   em                 B                em               B
   Words & numbers    Sound & silence  Stop the peace & keep the violence
G|-12-12-----------------------------------------------------------------|
D|--------(14)------11--------------------------7-7----9-----(9)-9-9-----|
A|-----------14-14----9-9----6----6-9--10-10--10-------------------------|
E|---------12-----------------7-9---------------------7--7----7----------|  

     em              B                       c#dim    *      *         
     No &      yes & we digress     It lives with sad and happiness oh 
G|--------------------------------------------------------9-11-12---14/|
D|-9-----------9-9---(9)-----9-----------------------------------------|
A|---10-10---7------9------------6-----10-10----10---------------------|
E|--------------------7-7-----7-9---7-------------9-9---9--------------|

   {Fuzz added}
   Bbm
   God
G|-15--18--15--18--15--18--15--18-----------------------------------------|
D|---------------15---------------15\--8--11--8--11---8--11---8--11-11----|
A|--------------------------------------------------8------------------8\-|
E|------------------------------------------------------------------------|



{Ukulele/classical guitar. No distortion, chords played from the sixth fret}

   Bbm      *             *   *         *         *            F         * 
   Big bad Betty  of th' apocalypse  She opens her lips and it goes like this
G|---------------------------------------------------------------------------------|
D|---------------------------------------------------------------------------------|
A|-1---1---4---------1----1--4---4-------1---1-------4---------0---0-----3---3-----|
E|------------1(1)1----------------1-------------------1----1------------------1---|

           *      *           *      *                *          *                  Bbm       * 
  When the golden rule &  the jungle meet there'll be nothing to love & there'll be no one to beat
G|-------------------------------------------------------------------------------------------------------|
D|-------------------------------------------------------------------------------------------------------|
A|---------0--1----3----------0--0----3------3---------0----1---3----------------1-----1------4---4------|
E|-------------------1-----1---------------------1----------------1--------1------------------------1----|



{Intr. Guitar with Distortion}
          *         *         *         *             *         *           F        *
  All the things we know  the things we don't all the things we wish we can will and won't
G|----------------------------------------------------------------------------------------|
D|----------------------------------------------------------------------------------------|
A|--------1------1--4-----------1-----1---4---4--------1-----1--4-----------0----0--3-----|
E|------1-------------1-----1---------------------1-------------------1--1--------------1-|


          *        *        *         *          *     *      Bbm      *
   We're [loaf?] together & nothing's left We're all together & all bereft
G|----------------------------------------------------------------------------------|
D|----------------------------------------------------------------------------------|
A|-------0-------2--3-------0---0---3---3--------0-----0--3-------1----1--4--4------|
E|--------------------1---1----------------1-----------------1--1--------------1----|


    bm    *       *    *                 *     *          F#        *
    Capitalists   Communists You did the hokey pokey & it went like this
G|-----------------------------------------------------------------------|
D|-----------------------------------------------------------------------|
A|--2-2---5--------2-2--5------5--------2-----2--5------1---1------4-----|
E|-------------2-2---------------2-----------------2-2---------------2---|

    *             *           *        *         *        *           bm        *
    You hate each other & you love yourselves It might be heaven & it might be hell
G|-----------------------------------------------------------------------------------|
D|-----------------------------------------------------------------------------------|
A|-------1-------1-----4------1---1---4---4--------1-----2--4-------2----2--5--------|
E|---2------------------2--2----------------2-2---------------2--2--------------2----|
  *       *         *        *         *           *         *             F#   *       
  All the things we do   the things we say All the things we wish we could wash aw-
G|----------------------------------------------------------------------------------|
D|----------------------------------------------------------------------------------|
A|-2---5-----------2---2--5---5----------------2-------2--------5-------------------|
E|-----------2---2---------------2--------2----------------------------2/----6----\-|


My first bass tab. Hope it's worth the look. & is such a great song. 
Soon I hope to do Hawaii Part II songs.



************************************

| /   slide up
| \   slide down
| h   hammer-on
| p   pull-off
| ~   vibrato
| +   harmonic
| x   Mute note
| b   Bend
| pb  Pre-bend
| br  Bend release
| pbr Pre-bend release
| brb Bend release bend

************************************

            
            
Suggest correction
Creating personal tab
Creating personal tab
You can edit any tab online and save it as your Personal.

You can edit, replace or remove any tab part or add personal notes – all changes will be seen only by you.

Personal tabs can be accessed anytime from any device, even offline.
Learn more »
Give kudos to tab author, rate the tab!
1 2 3 4 5
comments
print report bad tab
1 comment total.
0 reply
Mysterium 10 Sep 09, 2016 08:06 PM

Amazing job

guest
You may want to rate the tab now too:
select rating
Wanna post a correction for this tab? Suggest correction