Oops, an error
Loading. Please wait.

And Tab

1,093 views 6 this week
2 commentsread comments
1 2 3 4 5
x 6
add to favorites
launch autoscroll
font size
0
reset
how to read this tab
guitar tuner
Autoscroll
slow
fast
+/-
esc
set tempo
stop
Help us to improve Ultimate-Guitar.com Take our survey!
×
Author
-------------------------------------------------------------------------------
                             & - Tally Hall
-------------------------------------------------------------------------------

Tabbed by: Victor Prieto punyidea
E-mail: vsprieto@gmail.com

Tuning: Standard

Love    of the   Sun

{Technically an organ/synth:}

bm         E       bm      E          G        C             F#
Came back again to make it clear that he never said it would be demand




bm         E      b        E
Shame on a martyr claiming friends from
G       A             B
[I, the?] perspective of &

e|------------------|
B|------------------|
G|-------2-4-2------|
D|---1-4-------4-1--|
A|-2----------------|
E|------------------|

{Guitar is there now, but faint. Play only the lower-pitched strings, muting & 
distortion, from 7th fret}
em              B
Weak & strong & wet & dry &
em7     A7      B
Right & wrong & live & die &
em             B
Sane & gone & love & not &

{Tentative tab (hard to tell exactly)}
       c#dim   *      *      F#7
   All the &s that we forgot so
e|--------------------------------|
B|-----2-------5------8------7----|
G|-----3-------6------9------9----|
D|-----5-------8------11-----8----|
A|---------------------------9----|
E|--------------------------------|


{Guitar leaves- only bass}
(bm)           (E)      (bm)    (E)
Sing while you hear it; don't deny it {It's coming back!}
G            C               F#
Leave if you can't stand the thought of it
bm        E        bm          E
Come back again to make things [sin?] with
G        A           B
no disrespect to the &

e|---------------------|
B|---------2-5-4-------|
G|-------2-------4-----|
D|---1-4---------------|
A|-2-------------------|
E|---------------------|

em           B
High & low & new & old &
em7    A7   B
Stop & go & hot & cold &
em           B
John & Yoko, dark & light
         c#dim     *       *         F#7
  it's almost time to  say goodnight to
e|----------------------------------------|
B|-------2---------5-------8---------7----|
G|-------3---------6-------9---------9----|
D|-------5---------8-------11--------8----|
A|-----------------------------------9----|
E|----------------------------------------|
  bm
  it       E      bm      E          G       C        F#
e|-------7--------------7-----------------------------------------|
B|-----7---9----------7---9p7-9-7----------7------------------7---|
G|---7--------------7-------------9--7---9---9-7------------6---9-|
D|-9--------------9------------------------------10-7-8---8-------|
A|------------------------------------------------------9---------|
E|----------------------------------------------------------------|
         bm        E          bm      E        G        A            B
e|6-10-9-7-----7-------------------------------7---9-10-9-10-9-7-----7-----9--|
B|-----------7---7-10-9-7---------7-----7-9-10--------------------10b-7---7-10|
G|------------------------9---7-9---7-9--------------------------------9-8----|
D|----------------------------------------------------------------------------|
A|----------------------------------------------------------------------------|
E|----------------------------------------------------------------------------|

(bm)        (E)    (bm)       (E)
They took a lesson from their fathers
(G)           (C )          (F#7)
Told them that they were the same command
bm             E        bm     E
Wait for their minds to make complete their
G             A           B
Lies [stood beside] every &

e|---------2-0-4-2--|
B|-------4----------|
G|-----4------------|
D|---4--------------|
A|-2----------------|
E|------------------|

em               B
Words & numbers  Sound & silence
em               B
Stop the peace & keep the violence
em         B
No & yes & we digress
           c#dim    *      *         Bbm
  It lives with sad and happiness oh God
e|----------------------------------------|
B|----------------------------------------|
G|----------------------------------------|
D|----------------------------------------|
A|----------------------------------------|
E|---0----------2-------3----6------------|






{Ukulele/classical guitar. No distortion, chords played from the sixth fret}

Bbm      *             *   *
Big bad Betty of th' apocalypse
    *         *           F         *
She opens her lips and it goes like this
         *      *            *      *
When the golden rule &   the jungle meet
            *          *                    Bbm       *
there'll be nothing to love &   there'll be no one to beat

{Intr. Guitar with Distortion}
          *         *         *         *             *         *           F        *
  All the things we know  the things we don't all the things we wish we can will and won't
e|----------------------------------------------------------------------------------------|
B|----------------------------------------------------------------------------------------|
G|----------------------------------------------------------------------------------------|
D|----------------------------------------------------------------------------------------|
A|---------------1--4-----------1-----1---4---4---------1----1--4-----------0----0--3-----|
E|--------------------1-----1---------------------1------------------1-----------------1--|


          *        *        *         *          *     *      Bbm      *
   We're [loaf?] together & nothing's left We're all together & all bereft
e|----------------------------------------------------------------------------------|
B|----------------------------------------------------------------------------------|
G|----------------------------------------------------------------------------------|
D|----------------------------------------------------------------------------------|
A|-------0-------0---3------0---0---3---3---------0----0--3-------1----1--4--4------|
E|--------------------1---1----------------1----------------1--1---------------1----|




    bm    *       *    *                 *     *          F#        *
    Capitalists   Communists You did the hokey pokey & it went like this
e|-----------------------------------------------------------------------|
B|-----------------------------------------------------------------------|
G|-----------------------------------------------------------------------|
D|-----------------------------------------------------------------------|
A|--2-2---5--------2-2--5-5-------------------2--5------1---1------4-----|
E|-------------2-2----------2------2----------------2----------------2---|

    *             *           *        *         *        *           bm        *
    You hate each other & you love yourselves It might be heaven & it might be hell
e|-----------------------------------------------------------------------------------|
B|-----------------------------------------------------------------------------------|
G|-----------------------------------------------------------------------------------|
D|-----------------------------------------------------------------------------------|
A|-------1-------1-----4------1---1---4---4--------1-----1--4-------2----2--5--------|
E|------------------2---2--2----------------2-----------------2--2--------------2----|
  *       *         *        *         *           *         *             F#   *
  All the things we do   the things we say All the things we wish we could wash aw-
e|----------------------------------------------------------------------------------|
B|----------------------------------------------------------------------------------|
G|----------------------------------------------------------------------------------|
D|----------------------------------------------------------------------------------|
A|-2---5-----------2---2--5---5----------------2-------2--------5----------1--------|
E|-----------2---2---------------2-------------------------------------2------------|


My first tab. Hope it's worth the look. & is such a great song.
Soon I hope to do Hawaii Part II songs

************************************

| /   slide up
| \   slide down
| h   hammer-on
| p   pull-off
| ~   vibrato
| +   harmonic
| x   Mute note
| b   Bend
| pb  Pre-bend
| br  Bend release
| pbr Pre-bend release
| brb Bend release bend

************************************
Suggest correction
comments
print report bad tab
2 comments total.
0 reply
trptsklz 73 Apr 06, 2013 11:18 PM

Great tab there! Nigh on perfect! 4 stars!

0 reply
EmmaCor 10 5 days ago

what do you mean by the "*"?

guest
You may want to rate the tab now too:
select rating
Wanna post a correction for this tab? Suggest correction