Oops, an error
Loading. Please wait.

Be Born Tab

2,082 views 1 this week
no commentswrite comment
1 2 3 4 5
please rate
add to favorites
launch autoscroll
font size
0
reset
how to read this tab
guitar tuner
Autoscroll
slow
fast
+/-
esc
set tempo
stop
Help us to improve Ultimate-Guitar.com Take our survey!
×
Difficulty
intermediate
I dont think this is exactly how he plays it but it sounds the same.  i only have the 
part down so here it is:


                G7                                       C
e]---------------------------1----------|----------------------------------|
B]-------0--------0--------------0-0----|-------1--------1-------4--1------|
G]------0--------0--------0-------0-----|------0-------0-------0-------0---|
D]--------------------------------------|----------0h2---------------------|
A]----------0h2-------------------------|---3---------------3--------------|
E]---3----------------3-----------------|----------------------------------|


              G                 Em                     D
e]----------3----------|-------0----------|--------2--------------2--------|
B]-------------0---0---|----------0---0---|-----------3---2---------3---3--|
G]-------0-------0-----|----0-------0-----|-----2-------2-------2-----2----|
D]---------------------|------------------|---0---------------0------------|
A]---------------------|------------------|--------------------------------|
E]---3-----------------|-0----------------|--------------------------------|

on the second time that you play it through, when you get to the D i think i goes like this

e]---------2---------------------------------------------|
B]------------3---3--------3-------3---------3-------3---|
G]------2-------2--------2-------2---------2-------2-----|
D]---0----------------0----------------------------------|
A]----------------------------3---------2--------0-------|
E]-------------------------------------------------------|

Then it goes back to the beginning.

well. more to come later.
HOORAY FOR MY FIRST TAB. pese
Suggest correction
Give kudos to tab author, rate the tab!
1 2 3 4 5
comments
print report bad tab
guest
You may want to rate the tab now too:
select rating
Please do not post tabs as comments. Select "correction" instead!