Oops, an error
Loading. Please wait.

Atrapados En La Red Tab

version 2
version 2

Whole song

Interactive

84 views 3 this week
no commentswrite comment
1 2 3 4 5
3 more votes to show rating
add to favorites
launch autoscroll
font size
0
reset
how to read this tab
guitar tuner
×
Best way to learn
"Atrapados En La Red"
Autoscroll
slow
fast
+/-
esc
set tempo
stop
     Atrapados en la red

     Intro:
     Nota: la h significa golpear (hammer), o sea, 
     tocar la nota sólo presionando con el dedo y 
     el trasto, sin pulsar con la uña ó plica.

1.-5-5-7-7-5h7-----------|           
2.-7-7-7-7-7---7-5---5s7-|            
3.-----------------6-----|           
4.-----------------------|           
5.-----------------------|
6.-----------------------| x 4 veces,


Bm C#m F#m (arpegiado, de arriba a abajo,
            desde la primera hasta la
            tercera cuerda.)
                            x 4 veces


1.---------|------|
2.-2h3-----|------|
3.-----4-2-|--2-4-|
4.---------|-4----| 
5.---------|------|
6.---------|------| x 4 veces.


1.-------------|-------------------|
2.-------------|----------10-------|
3.-------------|----10-12----12-10-|
4.-12-10----10-|-12----------------|  
5.-------12----|-------------------|
6.-------------|-------------------|


1.-------------|----------------------|
2.-------------|----------------------|
3.-------------|----10-12-------------|
4.-12-10----10-|-12----------------10-|
5.-------12----|----------12-10-12----|
6.-------------|----------------------|
     

1.-------------|-------------10-12-10-------------|
2.-------------|----------10----------13-11----10-|
3.-------------|----10-12-------------------12----|
4.-12-10----10-|-12-------------------------------|
5.-------12----|----------------------------------|
6.-------------|----------------------------------|


1.----------------10-10h12-9-|
2.-10-------10-12------------|
3.----10-12------------------|
4.---------------------------|
5.---------------------------|
6.---------------------------|


     Cualquier duda, comentario y/o correción, nomás digan.
     Hasta pronto.
Suggest correction
Give kudos to tab author, rate the tab!
1 2 3 4 5
comments
print report bad tab
guest
You may want to rate the tab now too:
select rating
Wanna post a correction for this tab? Suggest correction