Oops, an error
Loading. Please wait.

Atrapados En La Red Tab

version 3
version 3

Whole song

Interactive

59 views 1 this week
no commentswrite comment
1 2 3 4 5
3 more votes to show rating
add to favorites
launch autoscroll
font size
0
reset
how to read this tab
guitar tuner
Autoscroll
slow
fast
+/-
esc
set tempo
stop
Help us to improve Ultimate-Guitar.com Take our survey!
×
Enzo F.
 
Tam Tam Go/Atrapados en la red

    
Intro :
     
    e ||--9--9-----7-7----4-5---2--------2-------º
    B ||--10-10----7-7----5-5---2------5-2-------º
    G ||-------------------------------4---------º(4 veces)
    D ||-----------------------------------------º
    A ||-----------------------------------------º
    E ||-----------------------------------------º
    


        One, two
      
         F#m         Bm          C#m        Bm  F#m
    e ||-----------|----------|----------|------------
    B ||-------2---|------3---|----------|---2-0------
    G ||-----2---2-|----2---2-|-----4----|------2-----(4 veces)
    D ||-----------|----------|---6--5-4-|------------
    A ||----4------|---2------|----------|------------
    E ||-----------|----------|----------|------------
     
 
        ESTROFA
        
        Bm           F#m
        De tanto buscar hallé                                   Riff 1:
        Bm            F#m                                        E      Bm          C#m
        en una direccion de Internet                          e|---0-4-|------5-2-|-----7-4------
        Bm            C#m7                Riff 1              B|--0----|----3-----|---5----------
        un foro de forofos de pelis de terror y de serie B    G|-------|----------|--------------
                                                              D|-2-----|--4-------|-6------------
                                                              A|-------|----------|--------------
                                                              E|-------|----------|--------------
        Bm              F#m
        Y ahi conoci a una mujer
        Bm                   F#m
        que me escribio amor solo en ingles                         
                                                                    
        Bm            C#m7                   Riff 2                                                            
        su nombre me sedujo y el resto de su ser me lo imagine     
                                                                  
        para que quiero mas si me da lo que quiero tener, divino

        
       Riff 2:
          E             Bm           E           Bm        C#m7          D               E
       e|-----0-4-0---|------------|------0-4-|----------|----------|-.../9-10-9-------|-0-0---|
       b|---0---------|-----5--3---|----0-----|------3---|-------5--|------------10----|-0-0---|
       G|-------------|---2--------|----------|--------4-|-----4----|------------------|-1-1---|
       D|-2-----------|-4----------|--2-------|----4-----|---6------|------------------|-2-2---|
       A|-------------|------------|----------|--2-------|-4--------|------------------|-2-2---|
       E|-------------|------------|----------|----------|----------|------------------|-------|


        CORO:
            A           Bm          F#m       E
        Te di todo mi amor arroba arro punto com
           A              Bm        F#m      E
        y tu me arroba a rroba rrobado la razon
         A           Bm              F#m      E
        mandame un e-mail que te abriré mi buzón
           A               Bm            F#m      E      A    Bm  F#m
        y te hago un rinconcito en el archivo de mi corazón...
        E      A  Bm  F#m     E      Riff3(Solo LA primera vez)
        uo-o-o-ooohhh,    de mi corazon.

           A                 (Bajo):
        e|-12--12--------5--|-------------------------------|
        B|-10------10----6--|-------------------------------|
        G|-10------------7--|-------------------------------|
        D|-12---------------|-------------------------------|
        A|------------------|-------------4h5p4-------------|
        E|------------------|---0--2--5----------7--5--2----|
 

        REPETIR INTRO (X2)

        ESTROFA
        Bm           F#m       
        Salimos solo una vez
        Bm           F#m
        a navegar juntos por la red
        Bm            C#m7            Riff 1
        saque mi Visa oro y ella prometio que seria fiel
        Bm        F#m       
        nunca tocare su piel
        Bm            F#m
        nunca podre estar donde este
        Bm                C#m7                Riff 2      
        cuando el amor es ciego el corazon no miente a unos ojos que no ven.
       
        para que quiero mas si me da lo que quiero tener, divino

        REPETIR EL CORO

        SOLO            Gm      Cm    Dm          Gm          Gm      Cm     Dm              Gm
        e|-.../12\...-|-----------------|--1--3--3/5--3--1---|-----------------|---1--3--1--------|
        B|------------|-3----0---1---1P3|--------------------|-3----0---1---1P3|--------------3---|
        G|------------|---3-------------|--------------------|---3-------------|-----------3------|
        D|------------|-----------------|--------------------|-----------------|------------------|
        A|------------|-----------------|--------------------|-----------------|------------------|
        E|------------|-----------------|--------------------|-----------------|------------------|

         
           Gm       Cm   Dm            Gm           Gm         Cm                  Dm      C#m7
        e|------------------|-1--3--5--8b-11-8----|-----13------------13---------|--5-------4-------|
        B|--3-----0--1---1P3|---------------------|-11-----11--10--------10--8---|------6-----------|
        G|-----3------------|---------------------|------------------------------|------------------|
        D|------------------|---------------------|------------------------------|------------------|
        A|------------------|---------------------|------------------------------|------------------|
        E|------------------|---------------------|------------------------------|------------------|

       
           Cm      Bm7        A#          E   A
        e|--3-------2----|-------10-------10--9--|
        B|------4--------|-----------------------|
        G|---------------|-../10-----------------|
        D|---------------|-----------------------|
        A|---------------|-----------------------|
        E|---------------|-----------------------|
 
 
          BAJO:
        e|--------------------------|
        B|--------------------------|
        G|--------------------------|
        D|-----7---9h10p9---7-------|
        A|--7------------------7----|
        E|--------------------------|

        Bm         E         Bm        C#m         D                 EE
        oohh para que quiero más si me da lo que quiero tener, divino

        
        REPETIR EL CORO (X2)
        (En el coro):
        e|--0---|-----|--------10-12-15b----14--12-----|------------------|
        B|----3-|-0---|-10h12-----------------15--12---|------------------|
        G|------|---2-|--------------------------------|-14-12------------|
        D|------|-----|--------------------------------|------14-12-------|
        A|------|-----|--------------------------------|-----------14-12--|
        E|------|-----|--------------------------------|------------------|                 
        
           
        Bm F#m       E          A  Bm F#m             E
               Ciberpirata de amor,       me has abordado a traicion  x2

        

   
          Dm    C#m7    Cm
      
        e|-5----5-------5---|---------------9-12--|-16b------14-12----------0----|------------------|
        B|-6----6-------6---|---------7--10-------|----------------14---------2--|---0--------------|
        G|-7----5-------3---|-----6-9-------------|-------------------13--------1|-1---1----1-------|
        D|------------------|---7-----------------|------------------------------|--------4---------|
        A|------------------|-9-------------------|------------------------------|------------------|
        E|------------------|---------------------|------------------------------|------------------|
Suggest correction
Give kudos to tab author, rate the tab!
1 2 3 4 5
comments
print report bad tab
guest
You may want to rate the tab now too:
select rating
Wanna post a correction for this tab? Suggest correction