Oops, an error
Loading. Please wait.

Espaldas Mojadas Tab

174 views 1 this week
no commentswrite comment
1 2 3 4 5
3 more votes to show rating
add to favorites
×
Save as Personal and add changes to this tab that will be seen only by you. Learn more ›
×
You can save this tab as Personal to edit and correct it or add notes. All changes will be seen only by you. Learn more »
save as personal
new!
launch autoscroll
font size
0
reset
how to read this tab
guitar tuner
Autoscroll
slow
fast
+/-
esc
set tempo
stop
Intro:

1ª guitarra                   2ª guitarra
|----------------|          |-------------------------5 ~\----------------------8-6-8 ~ ---|
|----------------|          |-------7~\-----------/5------------/7-7\---------8------------|
|-5--------3-----|          |----/8-----------------------------/8-8\----------------------|
|-5--5-----3--3--|   x 4    |--------------------------------------------------------------|
|-3--5-----1--3--|          |--------------------------------------------------------------|
|----3--------1--|          |--------------------------------------------------------------|
                                                  
1er verso
|----------------|          |--------------------------/5-5\---------------8p6-8 ~ --------|
|----------------|          |-------7~\----------------/5-5\----------8--------------------|
|-5--------3-----|          |----/8--------------------------------------------------------|
|-5--5-----3--3--|   x4     |--------------------------------------------------------------|
|-3--5-----1--3--|          |--------------------------------------------------------------|
|----3--------1--|          |--------------------------------------------------------------|
           
                            |----------------------------------------12-----------20 ~ ----|
                            |-----------------------------7--7/12--------------------------|
                            |----------------------3--7------------------------------------|
                            |-----3-2hp3---------------------------------------------------|
                            |---5--------3-------------------------------------------------|
                            |-5------------3-----------------------------------------------|

2º verso
|----------------|          |-----------------------5 ~ ---------------8 ~ ----------------|
|----------------|          |-------7 ~\--------------------------8--6?--------------------|
|-5--------3-----|          |----/8--------------------------------------------------------|
|-5--5-----3--3--|   x3     |--------------------------------------------------------------|
|-3--5-----1--3--|          |--------------------------------------------------------------|
|----3--------1--|          |--------------------------------------------------------------|

|----------------|
|----------------|
|-5--------3*----|
|-5--5-----3*-3*-|
|-3--5-----1*-3*-|
|----3--------1*-|

* es dejarlas sonar

Esperame.......
|--0--0--1--0--|
|--0--0--3--0--|
|--0--2--3--0--|
|--2--2--2--2--|
|--3--2--1--2--|
|--1--0--1--2--|

|--0--0--|              |--------------------------------------7h11p7-----9 ~ --|
|--0--0--|              |----------------1------7--------10--11-------11--------|
|--0--2--|              |------------2------2/8-----8/11------------------------|
|--2--2--|              |--------3-----3----------------------------------------|
|--3--2--|              |----3-----3--------------------------------------------|
|--1--0--|              |--1---1------------------------------------------------|

Voy.......
                        |------------------------------------0--0---------------|
                        |------------------------------------0--0---------------|
                        |--------5----5\---------------------0--0--2/3--2-------|
                        |--5h7-----7-------------------------2--2---------------| x2
                        |------------------------------------3--3---------------|
                        |------------------------------------3--3---------------|


|-----------------|      |-----------------------------------12---------20 ~ ---|
|-----3--------1--|      |-------------------------7--7/12----------------------|
|--5--5-----1--3--|      |--------------------3--7------------------------------|
|--5--5-----3--3--|  x3  |------3--2h3p2----------------------------------------|
|--3--------3-----|      |----5----------3--------------------------------------|
|-----------------|      |--5--------------3------------------------------------|

|-----------|     |---------------------------------------------------------|
|-----3-----|     |-----------------------------------7\-------8^8^8^-8^8^--|
|--5--5-----|     |------------------------------3?7------------------------|
|--5--5-----|     |------------2-2--2-3^p2----------------------------------|
|--3--------|     |---3-3-3--5-------------3--------------------------------|
|-----------|     |--------------------------3------------------------------|


Y si me.....
|-----------------|         |----------------------------------------------------------------|
|-----3--------1--|         |--------7 ~\-------------6 ~\----------/7-7\--------------6 ~ --|
|--5--5-----1--3--|         |----/8--------------3-4----------------/8-8\---------3h4--------|
|--5--5-----3--3--|  x3     |----------------------------------------------------------------|
|--3--------3-----|         |----------------------------------------------------------------|
|-----------------|         |----------------------------------------------------------------|

|------------------|       
|-----3------------|      
|--5--5-----1*-----|       
|--5--5-----3*-3*--|       
|--3--------3*-3*--|      
|--------------1*--|       

Se repite coros

Final:
|--------------------------------12---------20 ~ ---|
|----------------------------7/12-------------------|
|-----------------------3--7------------------------|
|---------3-2h3p2-----------------------------------|
|------5----------3---------------------------------|
|---5---------------3/------------------------------|

|------------------------------------------------------|
|------------------------------------7\---8^8^8^-8^8^--|
|-------------------------------3--7-------------------|
|------------2-2--2-3^p2-------------------------------|
|---3-3-3-5--------------3-----------------------------|
|--------------------------3/--------------------------|

|---------------------------------12---------20 ~ ---|
|----------------------------7/12--------------------|
|-----------------------3--7-------------------------|
|---------3-2h3p2------------------------------------|
|------5----------3----------------------------------|
|---5---------------3/-------------------------------|

|---------------------------------------------------------------------|
|-----------------------------------7\--------------------------------|
|------------------------------3--7---------3h4p3-0-------------------|
|-----------2-2--2-3^p2------------------------------2h3p2-0----------|
|---3-3-3-5-------------3------------------------------------3--------|
|-------------------------3/------------------------------------------|
Suggest correction
Give kudos to tab author, rate the tab!
1 2 3 4 5
comments
print report bad tab
guest
Wanna post a correction for this tab? Suggest correction