Oops, an error
Loading. Please wait.

Quiero Ser Tu Sombra Tab

200 views 1 this week
no commentswrite comment
1 2 3 4 5
3 more votes to show rating
add to favorites
launch autoscroll
font size
0
reset
how to read this tab
guitar tuner
×
Best way to learn
"Quiero Ser Tu Sombra"
Autoscroll
slow
fast
+/-
esc
set tempo
stop
Este es el punteo que acompaña el tema

e -----------8---8-----8-8/10-8-7-6-7--------- | |
B -5-6-5-4-5---5---5-5------------------------ | |
G -------------------------------------------- | |
D -------------------------------------------- | |
A -------------------------------------------- | |
E -------------------------------------------- | |

e ----------------7---7-----7-7/8-7-5-4-5----- | |
B -5-6-5-4-5----5---5---5-5------------------- | |
G -------------------------------------------- | |
D -------------------------------------------- | |
A -------------------------------------------- | |
E -------------------------------------------- | |

e -------------5-0-5-4-3-3-3-5-3-1-0-1------- | |
B -5-6-5-4-5--------------------------------- | |
G ------------------------------------------- | |
D ------------------------------------------- | |
A ------------------------------------------- | |
E ------------------------------------------- | |

e -1-0---------------------------0-1-0-------------0-5---- | |
B ------3-1-0----------0-1-3----------3-1------1---------- | |
G ---------------2-1-2-----------------------2------------ | |
D -------------------------------------------------------- | |
A -------------------------------------------------------- | |
E -------------------------------------------------------- | |

BIS

e -/12-12-12-12-10-0-12-10-0-12-10-0-12-10-------------- | |
B ------------------------------------------------------ | |
G ------------------------------------------------------ | |
D ------------------------------------------------------ | |
A ------------------------------------------------------ | |
E ------------------------------------------------------ | |

e -0-10-8-0-10-8-0-10-8-0----------- | |
B ---------------------------------- | |
G ---------------------------------- | |
D ---------------------------------- | |
A ---------------------------------- | |
E ---------------------------------- | |

e --8-7-0-8-7-0-8-7-0-8-7-0--------- | |
B ---------------------------------- | |
G ---------------------------------- | |
D ---------------------------------- | |
A ---------------------------------- | |
E ---------------------------------- | |

e -0-7-5-0-7-5-0-7-5-0-7-5-0------- | |
B --------------------------------- | |
G --------------------------------- | |
D --------------------------------- | |
A --------------------------------- | |
E --------------------------------- | |

e -5-3-0-5-3-0-5-3-0-5-3---------- | |
B -------------------------------- | |
G -------------------------------- | |
D -------------------------------- | |
A -------------------------------- | |
E -------------------------------- | |

e -0-3-1-0-1---1-0----------------------0-1-0--------------0-5--- | |
B -------------------3-1-0--------0-1-3--------3-1-0----1-------- | |
G --------------------------2-1-2----------------------2--------- | |
D --------------------------------------------------------------- | |
A --------------------------------------------------------------- | |
E --------------------------------------------------------------- | |

BIS DESDE EL PRINCIPIO


LETRA:

Como te nombrare
Para que entiendas
Que es por ti mi canción

Como decirte amor
De mi temor
Que no me quieras creer

Si sabes que mis ojos
Están viendo
Lo que tú quieres ver

Si eres como la estrella
Que mata los miedos
De mi anochecer.

Tu sombra quiero ser
Para que entiendas
De esta dulce ansiedad

Que hay en mi corazón
Para que sepas
Como se debe amar

Para seguirte a veces
Y otras veces
Señalarte el lugar

Por donde caminar
Para encontrar al fin
La dicha del amor

Y así mi vida
Seré tu sombra
Que no te llama
Que no te nombra
Pero te ama
Pero te sigue
Y enamorada
Besar tu piel


Cualquier "cosilla" o error que tenga el tema
por favor contactenme: Sebas35777@
Suggest correction
Give kudos to tab author, rate the tab!
1 2 3 4 5
comments
print report bad tab
guest
You may want to rate the tab now too:
select rating
Wanna post a correction for this tab? Suggest correction