Oops, an error
Loading. Please wait.

Zamba De Amor En Vuelo Tab

version 1
version 1

Whole song

289 views 1 this week
no commentswrite comment
1 2 3 4 5
3 more votes to show rating
add to favorites
×
Save as Personal and add changes to this tab that will be seen only by you. Learn more ›
×
You can save this tab as Personal to edit and correct it or add notes. All changes will be seen only by you. Learn more »
save as personal
new!
launch autoscroll
font size
0
reset
how to read this tab
guitar tuner
Autoscroll
slow
fast
+/-
esc
set tempo
stop
Intro:

          REm             LAm
e||---1-------1--3--1--0-------0--1--0---
B||-----3---3------------1---1-----------
G||-------2----------------2-------------
D||---0----------------2-----------------
A||--------------------------------------
E||--------------------------------------

          MI7
e||---------------0----------------------
B||----3-------3------3--1----3--3]5--5--
G||------1---1---------------------------
D||--------2-----------------------------
A||----2------------------2]3----3]5----5
E||--------------------------------------

          REm             LAm
e||---1-------1--3--1--0-------0--1--0---
B||-----3---3------------1---1-----------
G||-------2----------------2-------------
D||---0----------------2-----------------
A||--------------------------------------
E||--------------------------------------

                                                 LAm
e||(0)1-0-----------------------------------------0-
B||-------3-1-0-----------------------------------1-
G||-------------2-1--(2)1---1-2-------------------2-
D||-----------------------4-----(1)2-1--2-333-2---2-
A||---------------------------------------------0-0-
E||-----------------------------------------------0-

Nota: Las cuerdas que estan entre "()" en el intro es por que tienen
un tiempo corto de sonido, osea apenas se las toca, se cambia
inmediatamente a la nota de al lado.


LAm                     REm
Como un tizón encendido ardiendo dentro mi sangre
SOL7                    DO                (LA7)
tu sombra viene conmigo y no la puedo arrancar.
REm               (LAm)  (SOL)  (FA)        MI7                 LAm (LA7)
 Te llevo por los caminos como un abrojo prendido, prendido a mi caminar.
REm               (LAm)  (SOL)  (FA)        MI7                     LAm
 Te llevo por los caminos como un abrojo prendido, prendido a mi guitarrear.


Por esas ramas del viento veo anunciado tu pelo
y en los alambres del tiempo jirones de soledad.
Se deshilacha el recuerdo sabiendo que estas muy lejos
y que ya no volverás.
Se deshilacha el recuerdo sabiendo que estas muy lejos,
de aquella nuestra verdad.


Puente:
(FA)(FA#)SOL             DO  (LA7)   REm              LAm
         Estremecidos de cieloooo...  yo vi tus ojos llorar
REm               (LAm)  (SOL)  (FA)        MI7                 LAm (LA7)
  La noche pide guitarra la zamba busca el olvido y yo te quiero cantar.
REm               (LAm)  (SOL)  (FA)        MI7                       LAm
  La noche pide guitarra la zamba busca el camino...yo no te puedo olvidar.

                           ------II------

Como un sutil alfarero te fui tallando en mis sueños
a golpe de greda y fuego a fuerza de tanto amar.
 Y en el telar de un coplero te dibujé verso a verso para no perderte más.
 Y en el telar de un coplero te dibujé verso a verso para besarte al cantar.


Aquella luna perdida como un capullo en el cielo
se me hace que es tu pañuelo que en una zamba se va.
Y en el temblor del lucero como siguiendo tu vuelo, mis pensamientos se van
Y en el temblor del lucero como siguiendo tu vuelo mi amor,
mi amor te sale a buscar

Puente:
(FA)(FA#)SOL             DO  (LA7)
         Estremecidos de cieloooo...

--------------------------------------------------------------------
NOTA:Acordes dentro de paréntesis un solo golpe hacia abajo
y el puente del estribillo empieza
en [FA] y termina en [SOL] este [SOL] es con cejilla.

"Bueno Espero que les guste, esta corregida ya que la que estaba
no tenia todos los acordes y algunos no estaban bien ubicados,
Saludos y AGUANTE EL FOLCLORE!!!.
Esta es tal cual la toco Tamara en vivo en: (La EXPOSUR 2006  Tarija)
Link de Youtube:
Suggest correction
Give kudos to tab author, rate the tab!
1 2 3 4 5
comments
print report bad tab
guest
Wanna post a correction for this tab? Suggest correction