Oops, an error
Loading. Please wait.

Love Fade Tab

1,901 views 9 this week
1 commentread comment
1 2 3 4 5
x 4
add to favorites
launch autoscroll
font size
0
reset
how to read this tab
guitar tuner
Autoscroll
slow
fast
+/-
esc
set tempo
stop
Help us to improve Ultimate-Guitar.com Take our survey!
×
Author
Tamaryn - Love Fade


chord shapes throughout the whole song:

      Am       Cmaj7        Em            G
e-----0---------3------------0------------0--------|
B-----1---------0------------0------------0--------|
G-----2---------0------------0------------0--------|
D-----2---------2------------2------------0--------|
A-----0---------3------------2------------2--------|
E-----0---------3------------0------------3--------|


lead (tremolo picking):

e-------------------------|
B---19--15----------------|
G-----------16--14--16----|
D-------------------------|
A-------------------------|
E-------------------------|



http://tamarynmusic.com/
Suggest correction
comments
print report bad tab
1 comment total.
0 reply
beefcake4000 175 May 10, 2013 09:26 PM

I'd argue that the C is


e-----0---------|
B-----0---------|
G-----0---------|
D-----2---------|
A-----3---------|
E--------------|


I don't hear that high G at all, but the low G I'm not sure about. Everything else is correct.

guest
You may want to rate the tab now too:
select rating
Wanna post a correction for this tab? Suggest correction