Oops, an error
Loading. Please wait.

La Cumbita Tab

version 1
version 1

Whole song

78 views 1 this week
no commentswrite comment
1 2 3 4 5
3 more votes to show rating
add to favorites
×
Save as Personal and add changes to this tab that will be seen only by you. Learn more ›
×
You can save this tab as Personal to edit and correct it or add notes. All changes will be seen only by you. Learn more »
save as personal
new!
launch autoscroll
font size
0
reset
how to read this tab
guitar tuner
Autoscroll
slow
fast
+/-
esc
set tempo
stop
Punteo:
1|-----------------------0---------------------------0----
2|---------1---1---1-3-4---3-1---------1---1---1-3-4---3-1
3|-2-2-2-2---2---2-------------2-2-2-2---2---2------------
4|--------------------------------------------------------
5|--------------------------------------------------------
6|--------------------------------------------------------

1|-----------------------0-----------------------0--------
2|---------1---1---1-3-4---3-1---------1---1-3-4---3-1----
3|-2-2-2-2---2---2-------------2-2-2-2---2----------------
4|--------------------------------------------------------
5|--------------------------------------------------------
6|--------------------------------------------------------
Am                                        _
Yo quiero que me toque una cumbita         |
                  C                        |
yo quiero que la baile Maribel             |
Dm                                         |
quiero ver su graciosa figurita            |
Em            Am                           |
moviendo los pies, los pies, los pies      |
                                           |_ (A)
yo quiero que me toque una cumbita         |
                  C                        |
yo quiero que la baile Maribel             |
Dm                                         |
quiero ver su graciosa figurita            |
Em            Am                           |
moviendo los pies.                        _|

Am
Cuando la toco suave
C
me veo estremecer
Dm              Em            Am
cuando tu boca besa no puede ser

cuando las aves vuelan
C
es que va a amanecer
Dm              Em             Am
si tus ojos me miran vuelvo a nacer

(A)

Punteo x2

(A)

Am
La noche esta muriendo
C
la luna la dejo
Dm              Em            Am
si tu te vas mi vida me muero yo
Am
cuando se agita el viento
C
se alborota el palmar
Dm              Em            Am
y al son de tus caderas me haces bailar
--------------------------------------------------------------------
--------------------------------------------------------------------
\xo    / \x  o  /
 ||||0|   ||||0|
 |||00|        ||0|||
 ||||||        |0||||
 ||||||        ||||||
   Am       C
\xxo   / \o  ooo/
 |||||0        ||||||
 |||0||        |00|||
 ||||0|        ||||||
 ||||||        ||||||
   Dm       Em
Suggest correction
Give kudos to tab author, rate the tab!
1 2 3 4 5
comments
print report bad tab
guest
Wanna post a correction for this tab? Suggest correction