Oops, an error
Loading. Please wait.

La Cumbita Tab

version 2
version 2

Whole song

14 views 1 this week
no commentswrite comment
1 2 3 4 5
3 more votes to show rating
add to favorites
launch autoscroll
font size
0
reset
how to read this tab
guitar tuner
Autoscroll
slow
fast
+/-
esc
set tempo
stop
Help us to improve Ultimate-Guitar.com Take our survey!
×
INTRO Y Punteo

1|----------------------------8-10-11-10-8---
2|--8-8-8-8--11--8-11---8-11-----------------
3|-------------------------------------------
4|------------------------------------------- X 2
5|-------------------------------------------
6|-------------------------------------------


1|---------------------------8-10-11-10-8--------------------10-8---
2|8-8-8-8--11--8-11---8-11----------------8-8-8-8-11---8-11-------11-8
3|-------------------------------------------------------------------
4|-------------------------------------------------------------------
5|-------------------------------------------------------------------
6|-------------------------------------------------------------------


Gm                                        _
Yo quiero que me toque una cumbita
                  A#
yo quiero que la baile Maribel
                               F (corte)
quiero ver su graciosa figurita
                       Gm
moviendo los pies, los pies, los pies

yo quiero que me toque una cumbita
                  A#
yo quiero que la baile Maribel
                                F
quiero ver su graciosa figurita aa
               Gm
moviendo los pies.                        _

Gm
Cuando la toco suave
                A#
me veo estremecer
                 D             Gm
cuando tu boca besa no puede ser

cuando las aves vuelan
                 A#
es que va a amanecer
                 D              Gm
si tus ojos me miran vuelvo a nacer


Punteo


Gm
La noche esta muriendo
            A#
la luna la dejo
                  D           Gm
si tu te vas mi vida me muero yo
Gm
cuando se agita el viento
                 A#
se alborota el palmar
                   D               Gm
y al son de tus caderas me haces bailar
--------------------------------------------------------------------


LeoNRi.- q gran de la cumbita!!jaja
Suggest correction
Give kudos to tab author, rate the tab!
1 2 3 4 5
comments
print report bad tab
guest
You may want to rate the tab now too:
select rating
Wanna post a correction for this tab? Suggest correction