Oops, an error
Loading. Please wait.

La Cumbita Tab

version 3
version 3

Whole song

44 views 1 this week
no commentswrite comment
1 2 3 4 5
3 more votes to show rating
add to favorites
launch autoscroll
font size
0
reset
how to read this tab
guitar tuner
Autoscroll
slow
fast
+/-
esc
set tempo
stop
Help us to improve Ultimate-Guitar.com Take our survey!
×
Punteo:

1|-------------------------8-9-10-9-8--
2|-8-8-8-8--11-8-11--8-11--------------
3|-------------------------------------  X3
4|-------------------------------------
5|-------------------------------------
6|-------------------------------------

1|-------------------10-8-10-------
2|-8-8-8-8--11-8-11----------11----
3|---------------------------------
4|---------------------------------
5|---------------------------------
6|---------------------------------

ó

1|---------------------------------
2|---------------------------------
3|----------------------5-6-7-6-5--  X3
4|-5-5-5-5--8-5-8--5-8-------------
5|---------------------------------
6|---------------------------------

1|---------------------------------
2|---------------------------------
3|-----------------7-5-7-----------
4|-5-5-5-5--8-5-8--------8---------
5|---------------------------------
6|---------------------------------

Gm                                        _
Yo quiero que me toque una cumbita         |
                  Bb                       |
yo quiero que la baile Maribel             |
Cm                                   F     |
quiero ver su graciosa figurita            |
              Gm                           |
moviendo los pies, los pies, los pies      |
                                           |_ (A)
yo quiero que me toque una cumbita         |
                  Bb                       |
yo quiero que la baile Maribel             |
Cm                                         |
quiero ver su graciosa figurita            |
F            Gm                            |
moviendo los pies.                        _|

Gm
Cuando la toco suave
Bb
me veo estremecer
Cm              F            Gm
cuando tu boca besa no puede ser

cuando las aves vuelan
Bb
es que va a amanecer
Cm              F             Gm
si tus ojos me miran vuelvo a nacer

Gm                                        _
Yo quiero que me toque una cumbita         |
                  Bb                       |
yo quiero que la baile Maribel             |
Cm                                   F     |
quiero ver su graciosa figurita            |
              Gm                           |
moviendo los pies, los pies, los pies      |
                                           |_ (A)
yo quiero que me toque una cumbita         |
                  Bb                       |
yo quiero que la baile Maribel             |
Cm                                         |
quiero ver su graciosa figurita            |
F            Gm                            |
moviendo los pies.                        _|


Punteo x2


Gm                                        _
Yo quiero que me toque una cumbita         |
                  Bb                       |
yo quiero que la baile Maribel             |
Cm                                   F     |
quiero ver su graciosa figurita            |
              Gm                           |
moviendo los pies, los pies, los pies      |
                                           |_ (A)
yo quiero que me toque una cumbita         |
                  Bb                       |
yo quiero que la baile Maribel             |
Cm                                         |
quiero ver su graciosa figurita            |
F            Gm                            |
moviendo los pies.                        _|


Gm
La noche esta muriendo
Bb
la luna la dejo
Cm              F             Gm
si tu te vas mi vida me muero yo
Gm
cuando se agita el viento
C
se alborota el palmar
Cm              F             Gm
y al son de tus caderas me haces bailar
--------------------------------------------------------------------
--------------------------------------------------------------------
Suggest correction
Give kudos to tab author, rate the tab!
1 2 3 4 5
comments
print report bad tab
guest
You may want to rate the tab now too:
select rating
Wanna post a correction for this tab? Suggest correction