Oops, an error
Loading. Please wait.

Siempre En Mi Mente Chords

30 views 1 this week
no commentswrite comment
1 2 3 4 5
3 more votes to show rating
add to favorites
launch autoscroll
font size
0
reset
transpose
0
reset
display chords
guitar tuner
Autoscroll
slow
fast
+/-
esc
set tempo
stop
Help us to improve Ultimate-Guitar.com Take our survey!
×
Introducción: 

E ---2-5----2-5----0-5----0-5------3------------------------
Si -3------3------2------2------0-3----0-3-------------------
G-----------------------------------------0-2--3-2-0-------
Re ---------------------------------------------------4-2----
A ----------------------------------------------------------
E ----------------------------------------------------------

Mi ---2-5----2-5----0-5----0-5------3--------------------------------
B -3------3------2------2------0-3----0-3---------------------------
Sol-----------------------------------------0-2--3-2-0-----------2---
D ---------------------------------------------------4-2-0--4-2-----
A ------------------------------------------------------------------
E ------------------------------------------------------------------

D                   G 
Tu estas siempre en mi mente
        D                 A 
pienso en ti amor a cada instante
D                    G 
como quieres tu que te olvide si estas tu
      D       A              D 
siempre tu, tu, tu siempre en mi mente
      D                   G 
      Tu estas siempre en mi mente
            D             A 
      como hiciste tu para olvidarme
      D                   G 
      como quieres tu que te olvide si estas tu
            D       A              D 
      siempre tu, tu, tu siempre en mi mente
      A 
Que voy hacer no se
           D 
no encuentro nada, nada, nada
      A                  D 
la solución no se como encontrarla
      G          D 
y yo trato de olvidarte
    G       D 
yo quiero olvidarte
      A             D 
y yo no se, como te olvido

(antes que termine la ultima nota comenzar con esto)      
E ------------------------------------------------------------
B ------------------------------------------------------------
Sol------2------2------2------2------0-------------------------
D --0-4----0-4------2------2------0------0--------------------
La ----------------4------4------2------2------0-2--0----------
E ------------------------------------------3--------3-2-0----

E -----------------------------------------------------------------
B -----------------------------------------------------------------
Sol------2------2------2------2------0------------------------------
D --0-4----0-4------2------2------0------0-----------------0-------
La ----------------4------4------2------2------0-2--0-------------0-
E ------------------------------------------3--------3-2-0---2-0---

      Tu estas siempre en mi mente...
      Que voy hacer no se...
A             D       G   A 
Siempre en mi mente vida mía
            ReM SolM LaM
siempre en mi mente
            ReM SolM LaM
siempre en mi mente
        ReM LaM SolM ReM LaM ReM
como te olvido.
(al final desde el primer ReM de la ultima estrofa se puntea la introducción)
Suggest correction
Give kudos to tab author, rate the tab!
1 2 3 4 5
comments
print report bad tab
guest
You may want to rate the tab now too:
select rating
Wanna post a correction for this tab? Suggest correction