Oops, an error
Loading. Please wait.

Apocalypse Dreams Bass Tab

version 1
version 1

Whole song

Interactive

12,205 views 27 this week
2 commentsread comments
1 2 3 4 5
worth learning
x 11
add to favorites
launch autoscroll
font size
0
reset
guitar tuner
Tab Pro tools
  • play this tab
  • loop segment
  • change instrument
  • show fretboard
  • metronome
×
Best way to learn
"Apocalypse Dreams"
Autoscroll
slow
fast
+/-
esc
set tempo
stop
Contributor
Tame Impala ///// Apocalypse Dreams ///// Lonerism 

Bass Tab


Intro/Verse                                  
G||-------------------------|
D||-5--5--5----5--5/--------|
A||----------5--------7--7--|
E||-------------------------|

G||----------------------------|
D||-8-----8--8-8-7-8----8-7-7--|
A||----------------------------|
E||----------------------------|
                                                        
G||------------------8--7--5---||   X3
D||----------------------------||
A||--6--6--6----6--6-----------||        
E||-6---------6----------------||        
                                                        


G||------------10--8--6--------------|-----------8h10--8--6-8----7--||
D||----------8-----------------------|-----8--11--------------------||
A||-9---9---9------------6----6--6-6-|-8-9--------------------6-----||
E||--------9-----------------6-6-----|------------------------------||


Verse2
G||-------------------------|
D||-5--5--5----5--5/--------|
A||----------5--------7--7--|
E||-------------------------|

G||----------------------------|
D||-8-----8--8-8-7-8----8-7-7--|
A||----------------------------|
E||----------------------------|
                                                        
G||------------------8--7--5---||   X2
D||----------------------------||
A||--6--6--6----6--6-----------||        
E||-6---------6----------------||          


G||-------------------------|
D||-5--5--5----5--5/--------|
A||----------5--------7--7--|
E||-------------------------|

G||-----------------------------|
D||-8/10-8-7--8-8-7-8----8-7-7--|
A||-----------------------------|
E||-----------------------------|
                                                        
G||------------------8--7--5---||   X2
D||----------------------------||
A||--6--6--6----6--6-----------||        
E||-6---------6----------------||       

Chorus
G||------------10--8--6--------------|-----------8h10--8--6-8--------------|
D||----------8-----------------------|-----8--11---------------------------|
A||-9---9---9------------6----6--6-6-|-8-9--------------------6---6--6-8/9-|
E||--------9-----------------6-6-----|-------------------------------------|


G||------------10--8--6--------------|-----------8h10--8--6-8----7--||
D||----------8-----------------------|-----8--11--------------------||
A||-9---9---9------------6----6--6-6-|-8-9--------------------6-----||
E||--------9-----------------6-6-----|------------------------------||


Verse3
G||-------------------------|
D||-5--5--5----5--5/--------|
A||----------5--------7--7--|
E||-------------------------|

G||-----------------------------|
D||-8/10-8-7--8-8-7-8----8-7-7--|
A||-----------------------------|
E||-----------------------------|
                                                        
G||------------------8--7--5---||   X3
D||----------------------------||
A||--6--6--6----6--6-----------||        
E||-6---------6----------------||       


G||-------------------------|
D||-5--5--5----5--5/--------|
A||----------5--------7--7--|
E||-------------------------|

G||-----------------------------|
D||-8/10-8-7--8-8-7-8----8-7-7--|
A||-----------------------------|
E||-----------------------------|  
                                                        
G||-------------------8-||      (short pause)
D||---------------------||      
A||---6--6--6----6--6---||      
E||-6----------6--------||

////////////  SYNTHS KICK IN

G||------------10--8--6--------------|-----------8h10--8--6-8--------------|
D||----------8-----------------------|-----8--11---------------------------|
A||-9---9---9------------6----6--6-6-|-8-9--------------------6---6--6-8/9-|
E||--------9-----------------6-6-----|-------------------------------------|


G||------------10--8--6--------------|-----------8h10--8--6-8----7--||
D||----------8-----------------------|-----8--11--------------------||
A||-9---9---9------------6----6--6-6-|-8-9--------------------6-----||
E||--------9-----------------6-6-----|------------------------------||

  -Nothing ever changes…  
G||------------10--8--6--------------|-----------8h10--8--6-8---|
D||----------8-----------------------|-----8--11----------------|
A||-9---9---9------------6----6--6-6-|-8-9--------------------6-|
E||--------9-----------------6-6-----|--------------------------|

            -Looks the same to … 
G||--7----------------6--------------||
D||----------------------------------||
A||----------------------------------||
E||----------------------------------||


G||------------10--8--6--------------|-----------8h10--8--6-8---|
D||----------8-----------------------|-----8--11----------------|
A||-9---9---9------------6----6--6-6-|-8-9--------------------6-|
E||--------9-----------------6-6-----|--------------------------|
 
G||--7----------------6--------------||   Repeat this until the end. 
D||----------------------------------||
A||----------------------------------||
E||----------------------------------||   

My best interpretation of the song. enjoy. 
comments
print report bad tab
2 comments total.
0 reply
chinny1991 wrote on July 19 2012, 04:00 am

Verse should finish like this sorry.

G||-----------------8--7--5---||
D||---------------------------||
A||-6--6--6----6--6-----------||
E||----------6----------------||

0 reply
fatima.torresla wrote on September 6 2013, 03:23 pm

yeah verse wrong :)

I want to post or [tab]
guest
You may want to rate the tab now too:
select rating
Please do not post tabs as comments. Select "correction" instead!