Oops, an error
Loading. Please wait.

Apocalypse Dreams Bass Tab

version 3
version 3

Whole song

Interactive

4,504 views 9 this week
1 commentread comment
1 2 3 4 5
x 15
add to favorites
launch autoscroll
font size
0
reset
guitar tuner
Autoscroll
slow
fast
+/-
esc
set tempo
stop
Help us to improve Ultimate-Guitar.com Take our survey!
×
Author
Difficulty
novice
G||---------------------------------------8-5-7-|
D||--5-5-5-55-05-022-88877888-88-777------------| X4
A||---------------------------------66066-------|
E||---------------------------------------------|

G||--10-5-8------78-10-5-8--|
D||--------666666-----------| 
A||-------------------------|
E||-------------------------|

G||---------------------------------8-5-7-|
D||--5-5-5-55-0050-22-888787888-----------| X5
A||----------------------------6666-------|
E||---------------------------------------|


G||--10-5-8------78-10-5-8--|
D||--------666666-----------| 
A||-------------------------| X2
E||-------------------------|

G||-----------|
D||-----------| 
A||----5*-----|
E||-----------|

G||---------------------------------8-5-7-|
D||--5-5-5-55-0050-22-888787888-----------| X4
A||----------------------------6666-------|
E||---------------------------------------|


G||--10-5-8------78-10-5-8--|
D||--------666666-----------| 
A||-------------------------| X18
E||-------------------------|


BY YONATHANGARFIAS
@YONATHANGARFIAS
Suggest correction
comments
print report bad tab
1 comment total.
0 reply
kukka 10 Jul 20, 2014 06:11 PM

Clearly wrong.

guest
You may want to rate the tab now too:
select rating
Wanna post a correction for this tab? Suggest correction