Oops, an error
Loading. Please wait.

Beverly Laurel Tab

version 2
version 2

Whole song

2,033 views 39 this week
no commentswrite comment
1 2 3 4 5
x 8
add to favorites
launch autoscroll
font size
0
reset
how to read this tab
guitar tuner
Autoscroll
slow
fast
+/-
esc
set tempo
stop
Help us to improve Ultimate-Guitar.com Take our survey!
×
Author
Difficulty
                        Tame Impala - Beverly Laurel
                  bonus track from their 2012 album Lonerism

The drums play a beat and then...

Intro:
Keyboard:
e|-----------------------------7.--9.-10.--12b14r12-----------------|
B|----------------7.--8-10.-----------------------------------------|
G|-9.-9.--7--9------------------------------------------------------| x6
D|------------------------------------------------------------------|
A|------------------------------------------------------------------|
E|------------------------------------------------------------------|

The synth just sustains the chords, but you can add a basic rhythm to it:
e|-7--7--7--7--5--5--5--5--2--2--2--2--2--3--3--3--|
B|-8--8--8--8--7--7--7--7--3--3--3--3--3--5--5--5--|
G|-9--9--9--9--6--6--6--6--4--4--4--4--4--4--4--4--| x6
D|-9--9--9--9--7--7--7--7--4--4--4--4--4--5--5--5--|
A|-7--7--7--7--5--5--5--5--2--2--2--2--2--3--3--3--|
E|-------------------------------------------------|


Verse:
"Why do they say that they know what's right for me?
Hey, I know what's right for me"
e|-7--7--7--7--5--5--5--5--2--2--2--2--2--3--3--3--|
B|-8--8--8--8--7--7--7--7--3--3--3--3--3--5--5--5--|
G|-9--9--9--9--6--6--6--6--4--4--4--4--4--4--4--4--| x2
D|-9--9--9--9--7--7--7--7--4--4--4--4--4--5--5--5--|
A|-7--7--7--7--5--5--5--5--2--2--2--2--2--3--3--3--|
E|-------------------------------------------------|


Back to keyboard riff:
Keyboard:
e|-----------------------------7.--9.-10.--12b14--r12---------------|
B|----------------7.--8-10.-----------------------------------------|
G|-9.-9.--7--9------------------------------------------------------| x2
D|------------------------------------------------------------------|
A|------------------------------------------------------------------|
E|------------------------------------------------------------------|

e|-----------------------------7.--9.-10.---------------------------|
B|----------------7.--8-10.----------------12b14r12-----------------|
G|-9.-9.--7--9------------------------------------------------------|
D|------------------------------------------------------------------|
A|------------------------------------------------------------------|
E|------------------------------------------------------------------|

Synth:
e|-7--7--7--7--5--5--5--5--2--2--2--2--2--3--3--3--|
B|-8--8--8--8--7--7--7--7--3--3--3--3--3--5--5--5--|
G|-9--9--9--9--6--6--6--6--4--4--4--4--4--4--4--4--| x3
D|-9--9--9--9--7--7--7--7--4--4--4--4--4--5--5--5--|
A|-7--7--7--7--5--5--5--5--2--2--2--2--2--3--3--3--|
E|-------------------------------------------------|


Then stripped down to just organ:
Organ plays the chords:
e|-7--------5--------2----------3------|
B|-8--------7--------3----------5------|
G|-9--------6--------4----------4------|
D|-9--------7--------4----------5------|
A|-7--------5--------2----------3------|
E|-------------------------------------|


Verse:
"Why do they say that they know what's right for me?
Hey, I know what's right for me"
e|-7--7--7--7--5--5--5--5--2--2--2--2--2--3--3--3--|
B|-8--8--8--8--7--7--7--7--3--3--3--3--3--5--5--5--|
G|-9--9--9--9--6--6--6--6--4--4--4--4--4--4--4--4--| x2
D|-9--9--9--9--7--7--7--7--4--4--4--4--4--5--5--5--|
A|-7--7--7--7--5--5--5--5--2--2--2--2--2--3--3--3--|
E|-------------------------------------------------|


Back to keyboard riff again:
Keyboard:
e|-----------------------------7.--9.-10.--12b14r12-----------------|
B|----------------7.--8-10.-----------------------------------------|
G|-9.-9.--7--9------------------------------------------------------| x2
D|------------------------------------------------------------------|
A|------------------------------------------------------------------|
E|------------------------------------------------------------------|

Synth::
e|-7--7--7--7--5--5--5--5--2--2--2--2--2--3--3--3--|
B|-8--8--8--8--7--7--7--7--3--3--3--3--3--5--5--5--|
G|-9--9--9--9--6--6--6--6--4--4--4--4--4--4--4--4--| x2
D|-9--9--9--9--7--7--7--7--4--4--4--4--4--5--5--5--|
A|-7--7--7--7--5--5--5--5--2--2--2--2--2--3--3--3--|
E|-------------------------------------------------|


Bridge:
"I know what's right, I know what's right, I know what's right for me,
I know what's right, I know what's right, I know what's right for me"
Synth:
e|-5--5--5--5--5--5--5--5--5--5--5--5--7--7--7--7--|
B|-7--7--7--7--7--7--7--7--7--7--7--7--8--8--8--8--|
G|-6--6--6--6--6--6--6--6--6--6--6--6--9--9--9--9--| x2
D|-7--7--7--7--7--7--7--7--7--7--7--7--9--9--9--9--|
A|-5--5--5--5--5--5--5--5--5--5--5--5--7--7--7--7--|
E|-------------------------------------------------|


"For me"
Synth:
e|-7--7--7--7--|
B|-8--8--8--8--|
G|-9--9--9--9--|
D|-9--9--9--9--|
A|-7--7--7--7--|
E|-------------|


Outro:
"I know what's right for me,
I know what's right for me,
I know what's right for me,
I know what's right for me"
Synth:
e|-5--5--5--5--7--7--7--7--|
B|-7--7--7--7--8--8--8--8--|
G|-6--6--6--6--9--9--9--9--| x4
D|-7--7--7--7--9--9--9--9--|
A|-5--5--5--5--7--7--7--7--|
E|-------------------------|

Another distorted synth plays this little riff:
e|-----------------------------|
B|-----------------------------|
G|-----------------------------| x4
D|-----------------------------|
A|-5--5--5--/9--7--7-7--10--9--|
E|-----------------------------|



************************************

| /   slide up
| \   slide down
| h   hammer-on
| p   pull-off
| ~   vibrato
| +   harmonic
| x   Mute note
| .   staccato
| b   Bend
| pb  Pre-bend
| br  Bend release
| pbr Pre-bend release
| brb Bend release bend

************************************
Suggest correction
comments
print report bad tab
guest
You may want to rate the tab now too:
select rating
Wanna post a correction for this tab? Suggest correction