Oops, an error
Loading. Please wait.

Bold Arrow Of Time Tab

version 1
version 1

Whole song

18,641 views 39 this week
4 commentsread comments
1 2 3 4 5
worth learning
x 7
add to favorites
launch autoscroll
font size
0
reset
how to read this tab
guitar tuner
Autoscroll
slow
fast
+/-
esc
set tempo
stop
Help us to improve Ultimate-Guitar.com Take our survey!
×
Author
Bold Arrow of Time - Tame Impala
from their Demos

these are the riffs played throughout the song :


E----------------------------------------------------|
B----------------------------------------------------|
G----------10---b12—-10—-b12-------------------------|         x4
D----/12-------------------------12--10--12----------|
A----------------------------------------------------|
E---------------------------------------------10-----|

E----------------------------------------------------|
B----------------------------------------------------|
G----------10---b12—-10—-b12-------------------------|         x2
D----/12-------------------------12--10--12----------|
A---------------------------------------------12-----|
E---------------------------------------------10-----|


E----------------------------------------------------|
B----------------------------------------------------|
G----------------------------------------------------|         x2
D----------------------------------------------------|
A-----------8—-b10--8—-b10---------------------------|
E----10-----------------------10-8-10---10-----------|

E----------------------------------------------------|
B----------------------------------------------------|
G-------------—- ------------------------------------|       x2
D---------8—-b10--8--b10-----------------------------|
A----10--------------------10-8-10-------------------|
E--------------------------------------10------------|
Suggest correction
comments
print report bad tab
4 comments total. Showing first comments.
0 reply
dis_is_riskee 644 wrote on April 3 2010, 05:47 am

where can i get a copy of this song! i looove tame impala :)

+3 reply
sharpmunga 134 wrote on August 16 2010, 12:18 am

I believe the riff/pattern sounds more correct like this:

E----------------------------------------------------|
B----------------------------------------------------|
G----------10---b12—-12—-10--------------------------|
D----/12-------------------------12--10--12----------|
A----------------------------------------------------|
E---------------------------------------------10-----|

-1 reply
berrance 10 wrote on December 3 2012, 12:05 pm

Or this


e|-------------------------------------|
B|-------------------------------------|
G|-------7-10-10b-10pbr-10brb-7-5-7----|
D|----------------------------------0--|
A|-------------------------------------|
E|-------------------------------------|

But then again this is the first thing I have worked out :)

guest
You may want to rate the tab now too:
select rating
Wanna post a correction for this tab? Suggest correction