Oops, an error
Loading. Please wait.

Cause Im A Man bass

version 1
version 1

Whole song

Interactive

4,762 views 60 this week
no commentswrite comment
1 2 3 4 5
x 6
add to favorites
×
Save as Personal and add changes to this tab that will be seen only by you. Learn more ›
×
You can save this tab as Personal to edit and correct it or add notes. All changes will be seen only by you. Learn more »
launch autoscroll
font size
0
reset
guitar tuner
edit
Autoscroll
slow
fast
+/-
esc
set tempo
stop
Author
Difficulty
Cause I'm A Man - Tame Impala

I think this is roughly correct, please post more refined tabs if possible, thanks. 

[Intro]

G|-------------------------------7--7--------------------------------------|
D|---------------------------------------------------------------------------|
A|----7--7--------7---7-7------5--------------5--5--------------------------|
E|--0-------7-7-9---0-----7-9----------0-5-7--------5-7---------------------|

G|----------------------------------------------7----------------------------|
D|---------------------------------------------------------------------------|
A|----7--7--------7---7-7------------5-5-5-5-5-------------------------------|
E|--0-------7-7-9---0-----7-9--3--3------------------------------------------|


[Verse 1]

G|------------------------------7--7-----------------------------------------|
D|---------------------------------------------------------------------------|
A|----7--7------7---7-7------5-------------5--5--5-5-------------------------|
E|--0-------7-9---0-----7-9------------7-7---------------5-7-----------------|

G|---------------------------------7--7--------------------------------------|
D|---------------------------------------------------------------------------|
A|----7--7--------7---7-7------5-------------5-7/9--7-5----------------------|
E|--0-------7-7-9---0-----7-9------------0-7------------7-5------------------|

G|------------------------------7--7-----------------------------------------|
D|---------------------------------------------------------------------------|
A|----7--7------7---7-7------5-------------5--5--5-5-------------------------|
E|--0-------7-9---0-----7-9------------7-7---------------5-7-----------------|

G|------------------------------7--7-----------------------------------------|
D|---------------------------------------------------------------------------|
A|----7--7------7---7-7------5------------5-7/9---5-7/9----------------------|
E|--0-------7-9---0-----7-9-----------0-7-------7----------------------------|

[Pre-Chorus 1]

G|-----12-10h12--------12-10h12-----------14--14-------------14-14/16--------|
D|---------------12-------------12------------------------12-----------------|
A|------------------10-------------10--12--------12-12-14-------------12-----|
E|--10-----------------------------------------------------------------------|

G|-----12-12-----12-12-12-----------14-14----------------14/16-16------------|
D|------------------------10-12--------------------12-14---------------------|
A|------------10-----------------12-------12-12-14---------------------------|
E|--10-----------------------------------------------------------------------|

G|-----12-12----------------------14-14---------14---14/16--------12-12-------12-12----|
D|--------------------------------------X----14----X-----------------------------------|
A|---------------10-----10-10-------------12---------------14--10----------10-------10-|
E|--10--------10-----10--------12---------------------------------------10-------------|

G|----14-14--------14---14/16----------------------------------------------------------|
D|----------X---14----X----------------------------------------------------------------|
A|-12---------X---------------14-14--14-14--14-14-14--14-14--14-14-14--14-14-14-14-----|
E|-------------------------------------------------------------------------------------|


[Chorus 1]

G|--------------------------7-7----------------------------------------------|
D|---------------------------------------------------------------------------|
A|----7-7--7-------7------5-----7/9~-5-7/9-----7--7--------7---7-7-----------|
E|--0--------0--7-----7-9------------------7-0-------7-7-9---0-----7-9-------|

G|----7-7--------------------------------------------------------------------|
D|---------------------------------------------------------------------------|
A|---------9~-7\5-7-7/9-----7--7--7-7-7-7-7-7--------------------------------|
E|--5-------------------7-0--------------------7-9---------------------------|

G|---------------------------------------------7-7---------------------------|
D|---------------------------------------------------------------------------|
A|-------5--5-5-5------7--7-----7---7-7------5-----7/9-----------------------|
E|--3-3------------X-0------7-9---0-----7-9----------------------------------|

G|---------------------------------------------------------------------------|
D|---------------------------------------------------------------------------|
A|----7--7--7----7-7-7----------5-5-5-5-5-5--5-7/9---------------------------|
E|--0---------0--------7-9-3-3-----------------------------------------------|

G|---------------------------------------------------------------------------|
D|---------------------------------------------------------------------------|
A|----7--7--------7---7-7-----5--5~----5-5--5--5--7--------------------------|
E|--0-------7-7-9---0-----7-9------------------------------------------------|

G|---------------------------------------------------------------------------|
D|---------------------------------------------------------------------------|
A|----7--7--------7---7-7----------5-5-5-5-5-5-5-5---------------------------|
E|--0-------7-7-9---0-----7-9--3---------------------------------------------|

G|-------------------------------7--7------7--7------------------------------|
D|---------------------------------------------------------------------------|
A|----7--7--------7---7-7------5-------5-5-----------------------------------|
E|--0-------7-7-9---0-----7-9------------------------------------------------|


[Verse 2]

G|------------------------------7--7-----------------------------------------|
D|---------------------------------------------------------------------------|
A|----7--7------7---7-7------5-------------5--5--5-5-------------------------|
E|--0-------7-9---0-----7-9------------7-7---------------5-7-----------------|

G|---------------------------------7--7--------------------------------------|
D|---------------------------------------------------------------------------|
A|----7--7--------7---7-7------5-------------5-7/9--7-5----------------------|
E|--0-------7-7-9---0-----7-9------------0-7----------7-5--------------------|

G|------------------------------7--7-----------------------------------------|
D|---------------------------------------------------------------------------|
A|----7--7------7---7-7------5-------------5--5------------------------------|
E|--0-------7-9---0-----7-9------------7-7-------7--7------------------------|

G|------------------------------7--7-----------------------------------------|
D|---------------------------------------------------------------------------|
A|----7--7------7---7-7------5-------------5-7/9-----------------------------|
E|--0-------7-9---0-----7-9------------0-7-------X---------------------------|

[Pre-Chorus 2]

G|-----12-10h12--------12-10h12-----------14--14-------------14-14/16--------|
D|---------------12-------------12------------------------12-----------------|
A|------------------10-------------10--12--------12-12-14-------------12-----|
E|--10-----------------------------------------------------------------------|

G|-----12-12-----12-12-12-----------14-14----------------14/16-16------------|
D|------------------------10-12--------------------12-14---------------------|
A|------------10-----------------12-------12-12-14---------------------------|
E|--10-----------------------------------------------------------------------|


G|-----12-12--------12---12-12------14-14---------14---14/16-----------------|
D|----------------------------------------X----14----X-----------------------|
A|-----------X---10----X---------12---------12---------------14--------------|
E|--10--------10---------------0---------------------------------------------|

G|-----12-12-------12-12-------14-14--------14---14/16-------------------------------------------------------|
D|-----------------------------------X---14----X-------------------------------------------------------------|
A|--10----------10-------10-12---------X---------------14-14--14-14--14-14-14--14-14--14-14-14--14-14-14-14--|
E|-----------10----------------------------------------------------------------------------------------------|

[Chorus 2]

G|-----------------------------7-7-------------------------------------------|
D|---------------------------------------------------------------------------|
A|--5---7-7--7---7-7-7-7-----5-----7/9~--5-7/9-------------------------------|
E|----0--------0---------7-9-------------------7-----------------------------|

G|--------------------------7-7----------------------------------------------|
D|---------------------------------------------------------------------------|
A|----7-7--7-------7------5-----9-7p5-7-7/9----------------------------------|
E|--0--------0--7-----7-9-------------------7--------------------------------|

G|------------------------------------------7--------------------------------|
D|--------------------------------------------7------------------------------|
A|----7--7------7-----------------5-5-5-5-5-----5----------------------------|
E|--0-------7-9---0--0-7h9--3--3---------------------------------------------|

G|-----------------------------------------------------------------------------|
D|------------------------------------------------------------------------11\--|
A|----7--7------7---7-7---------5---7--7--7---7-7-7------------5-5-5-5-5-----9-|
E|--0-------7-9---0-----7-9-------0---------0-------7-9--3--3------------------|

G|-----------------------------7-7-------------------------------------------|
D|----------------------------------------------7----------------------------|
A|----7--7--7-7-7-7-7-7------5------5-9\5-5-5/9------------------------------|
E|--0-------------------7-9--------------------------------------------------|

G|---------------------------------------------------------------------------|
D|---------------------------------------------------------------------------|
A|------7------7---7-7---------5-5-5-5-5-5-5/9-------------------------------|
E|--0-0----7-9---0-----7-9--3------------------------------------------------|

G|---------------------------------------------------------------------------|
D|-------------------------9-------------------------------------------------|
A|----7-7------7-----5-5-5---X-5---------------------------------------------|
E|--0------X-0---7-9---------------------------------------------------------|

************************************

| x   Dead note
| h   Hammer-on
| p   Pull-off
| /   Slide up
| \   Slide down
| ~   Vibrato

************************************

            
            
Suggest correction
Creating personal tab
Creating personal tab
You can edit any tab online and save it as your Personal.

You can edit, replace or remove any tab part or add personal notes – all changes will be seen only by you.

Personal tabs can be accessed anytime from any device, even offline.
Learn more »
comments
print report bad tab
guest
You may want to rate the tab now too:
select rating
Wanna post a correction for this tab? Suggest correction