Oops, an error
Loading. Please wait.

Desire Be Desire Go Bass Tab

version 1
version 1

Whole song

3,386 views 3 this week
2 commentsread comments
1 2 3 4 5
2 more votes to show rating
add to favorites
launch autoscroll
font size
0
reset
guitar tuner
Autoscroll
slow
fast
+/-
esc
set tempo
stop
Help us to improve Ultimate-Guitar.com Take our survey!
×
Author
Tabbed By: SlappinZ

Artist: Tame Impala
Album: Innerspeaker
Song: Desire Be Desire Go

Not the whole song, just about everything except chorus.
Caught their live show recently and highly recommend it.
The stuff I do tab is correct since I was watchin that bassist jam all night.

Verse:

G|----------------------------------------|
D|----------------------------------------|
A|---11-13----11h13-13-11h13-13-----------|
E|---------13-------------------13--11----|


Breakdown:

G|----------------------------------------------------|
D|----------------------------------------------------|
A|---11-13----11h13-13-11h13-13-----------11h13--11~--|
E|---------13-------------------13--11h13-------------|


Awesome band. Awesome song. Enjoy..
Suggest correction
Give kudos to tab author, rate the tab!
1 2 3 4 5
comments
print report bad tab
2 comments total.
0 reply
SlappinZ 60 Dec 16, 2010 06:24 PM

Sorry, breakdown should actually be:

G|---------------------------------------------------------|
D|---------------------------------------------------------|
A|-11h13--11h13-11----11h13-13-11h13-13---------11h13--11~-|
E|----------------13-------------------13--11h13-----------|

+1 reply
Dijorno 237 Jan 25, 2013 07:15 PM

Right frets, wrong tuning. They play in D standard.

guest
You may want to rate the tab now too:
select rating
Wanna post a correction for this tab? Suggest correction