Oops, an error
Loading. Please wait.

Elephant Bass Tab

version 2
version 2

Whole song

Interactive

14,046 views 54 this week
5 commentsread comments
1 2 3 4 5
accurate
x 20
add to favorites
launch autoscroll
font size
0
reset
guitar tuner
Tab Pro tools
  • play this tab
  • loop segment
  • change instrument
  • show fretboard
  • metronome
×
Best way to learn
"Elephant"
Autoscroll
slow
fast
+/-
esc
set tempo
stop
Contributor
Difficulty
novice
G||-----------------------------------------------------------------------|
D||-----------------------------------------------------------------------|
A||------------------------------------------------13141312131210---------|
E||10101010/1313--1010101010/1313--161616-101010-----------------1313-----|

G||-----------------------------------------------------------------------|
D||--------------------------------------------17-------------------------|
A||---------------------------------------1516---------13141312131210-----|
E||10101010/1313--1010101010/1313--161616--------101010---------------1313|

G||-----------------------------------------------------------------------|
D||--------------------------------------------17-------------------------|
A||---------------------------------------1516---------14131211-----------|
E||10101010/1313--1010101010/1313--161616--------101010--------1413121110-|

G||---------------------------------------------|
D||---------------------------------------------|
A||---------------------------------------------|
E||10101010101010-1515151515-1213/15-121314/10--|


G||------------------------------------|
D||------------------------------------|
A||--------------14131211--------------|
E||10101010101010--------1413121110*---|

G||---------------------------------------------------|
D||--------10-----------------------------------------|
A||------12-------------------------------------------|
E||101010----101010101515151515-1213/15-121314/10-----|


G||------------------------------------------------------|
D||--------10--------------------------------------------|
A||------12----------------------------------------------|
E||101010----1010101015151h1651515-1213/15-121314/10-----|

G||------------------------------------|
D||------------------------------------|
A||--------------14131211--------------|
E||10101010101010--------14131211------|


G||------------------------------------------------------------------------|
D||------------------------------------------------------------------------|
A||--------------------------------------------------------14131211--------|
E||66666666--151515h161515/17151515-101010h131010h131010h13--------14131211|

G||--------------------------------------------------------|
D||-----------------------------------------17--17---------| 
A||-------------------------------------1516--15-----------|
E||10101010/1313--1010101010/1313-161616----------101010/13|

G||------------------------------------------------------------------------|
D||-----------------------------------------17--17-------------------------| 
A||-------------------------------------1516--15--------13141312131210-----|
E||10101010/1313--1010101010/1313-161616----------101010---------------1313|


G||--------|
D||--------| 
A||--------|
E||10101010|
comments
print report bad tab
5 comments total. Showing first comments.
0 reply
Hasnep wrote on April 21 2013, 09:32 am

Can't help but think it's easier to play all of this up a string, instead of being really high up the neck, but that's just my opinion.

+2 reply
YGMusic wrote on April 29 2013, 05:54 pm, edited on April 26 2014, 05:46 pm

I just posted the my way to play it! It's not the only way to play it. :)

0 reply
nxaca wrote on August 1 2013, 03:38 pm

yeah}1 Nick allbrook way

I want to post or [tab]
guest
You may want to rate the tab now too:
select rating
Please do not post tabs as comments. Select "correction" instead!