Oops, an error
Loading. Please wait.

Elephant Bass Tab

version 3
version 3

Whole song

Interactive

2,625 views 18 this week
no commentswrite comment
1 2 3 4 5
excellent!
x 3
add to favorites
launch autoscroll
font size
0
reset
guitar tuner
Tab Pro tools
  • play this tab
  • loop segment
  • change instrument
  • show fretboard
  • metronome
×
Best way to learn
"Elephant"
Autoscroll
slow
fast
+/-
esc
set tempo
stop
Contributor
Difficulty
Tuning
intermediate
D G C F A D
Hey guys, greetings from Valparaíso, Chile.

Here are the notes and the tuning (D tuning) you should use to play Elephant properly.

This is my first tab ever, so I hope it will be useful for y'all.


    1|     2|    1|    2|    1|    2|    1|    2|     
F||-----------------------------------------------------||
C||-----------------------------------------------------||
G||-----------------------------------------------10-10-||
D||-12--12-12-12-12-12-12-12-12-12-12-12-12-12-12-------||

   "Well he feels like an elephant, shaking his
F||-----------------------------------------------||
C||-----------------------------------------------||
G||-----------------------------------------------||
D||-12--12-12-12-12-12-12-12-12-12-12-12-12-12-12-||

   big grey trunk for the hell of it"             "He knows
F||------------------------------------------------------||
C||------------------------------------------------------||
G||------------------------------------------------10-10-||
D||12-12-12-12-12-12-12-12-12-12-12-12-12-12-12-12-------||

   that you're dreaming 
                about being loved by
F||------------------------------------||
C||------------------------------------||
G||---7---7---7---7---7---7---7---7---7||
D||-5---5---5---5---5---5---5---5---5--||

     him"
F||-----------------------------------------------||
C||-----------------------------------------------||
G||-----------------------------------------------||
D||--12--12-12-12-12-12-12-12-12-12-12-12-12-12-12||

   "Too bad your 
   chances are slim".
F||------------------------------------------------------||
C||--9-10-9-8-9-8-7--------------------------------------||
G||-----------------< Snare, tom, floor tom fill>--10-10-||
D||------------------------------------------------------||

 
F||-----------------------------------------------------||
C||-----------------------------------------------------||
G||-----------------------------------------------10-10-||
D||-12--12-12-12-12-12-12-12-12-12-12-12-12-12-12-------||

   "And is not like Mr. Shuck to get shy
F||-----------------------------------------------||
C||-----------------------------------------------||
G||-----------------------------------------------||
D||-12--12-12-12-12-12-12-12-12-12-12-12-12-12-12-||

   when they ask him who is on top"              "There must
F||------------------------------------------------------||
C||------------------------------------------------------||
G||------------------------------------------------10-10-||
D||12-12-12-12-12-12-12-12-12-12-12-12-12-12-12-12-------||


    be something deep
             down in the dark down
F||-------------------------12h14-||
C||--------------------12h14------||
G||------------12--12-------------||
D||-5--5-5--5---------------------||

     there"    
F||----------------------------------------------||
C||----------------------------------------------||
G||----------------------------------------------||
D||-12--12-12-12-12-12-12-12-12-12-12-12-12-12-12||

    "He's not too
     easily scared".
F||------------------------------------------------------||
C||--9-10-9-8-9-8-7--------------------------------------||
G||-----------------< Snare, tom, floor tom fill>--10-10-||
D||------------------------------------------------------||
      
F||-----------------------------------------------------||
C||-----------------------------------------------------||
G||-----------------------------------------------10-10-||
D||-12--12-12-12-12-12-12-12-12-12-12-12-12-12-12-------||

   "He's got friends but they got fear
F||-----------------------------------------------||
C||-----------------------------------------------||
G||-----------------------------------------------||
D||-12--12-12-12-12-12-12-12-12-12-12-12-12-12-12-||

   Wouldn't care too much if he just disappeared" "Oh, look
F||------------------------------------------------------||
C||------------------------------------------------------||
G||------------------------------------------------10-10-||
D||12-12-12-12-12-12-12-12-12-12-12-12-12-12-12-12-------||

   see there
     he is now coming down the 
F||-------------------------12h14-||
C||--------------------12h14------||
G||------------12--12-------------||
D||-5--5-5--5---------------------||

    stairs"  
F||------------------------------------------------||
C||------------------------------------------------||
G||------------------------------------------------||
D||-12--12-12-12-12-12-12-12-12-12-12-12-12-12-12/||

                                                   "Here he comes".  
F||----------------------------------------------------------------||
C||----------------------------------------------------------------||
G||---------------/12--10--9--8--7--7-7-7-7-7-7-7-7----------------||
D||--10--9--8--7---------------------------------------------------||

1:15
F||----------------------------------------------------------------||
C||----------------------------------------------------------------||
G||--------------------------------------------------------------10||
D||--12--12--12--12--12--12--12--12--12--12--12--12--12--12--12----||

F||---------------------------------------------||
C||---------------------------------------------||
G||--12--12--12--12--12--12--12--12--12--12--12-||
D||---------------------------------------------||

F||-------------------||
C||-------------------||
G||-9--10--12/-------2||
D||------------2--3h5-||

F||---------------------------------------------------------------||
C||---------------------------------------------------------------||
G||---------------------------------------------------------------||
D||12--12--12--12--12--12--12--12--12--12--12--12--12--12--12--12/||

F||------------------------------------------------------------||
C||------------------------------------------------------------||
G||---------------/12--10--9--8--7--7-7-7-7-7-7-7-7-7-7-7-7-7-7||
D||--10--9--8--7-----------------------------------------------||

1:46
F||------------------------------------------------------------------||
C||----------------------------------12------------------------------||
G||-----------------------------12h14--------------------------------||
D||-12--12--12--12--12--12--12---------12--12--12--12--12--12--12--12||

F||--------------------------------------------------||
C||--------------------------------------------------||
G||--12--12--12--12--14p12-12-12--12--12--12--12--12-||
D||--------------------------------------------------||

F||-------------------||
C||-------------------||
G||-9--10--12/-------2||
D||------------2--3h5-||


F||----------------------------------------------------------------||
C||----------------------------------------------------------------||
G||----------------------------------------------------------------||
D||12--12--12--12--12--12--12--12--12--12--12--12--12--12--12--12/-||


F||-----------------------------------------------------------||
C||-----------------------------------------------------------||
G||--------------/12--10--9--8--7--7-7-7-7-7-7-7-7-7-7-7-7-7-7||
D||-10--9--8--7-----------------------------------------------||

2:17
F||-----------------------------------------------------------------||
C||-----------------------------------------------------------------||
G||-----------------------------------------------------------------||
D||-0-0-0-0-0-0-0-0-0-0-0-0-0-0-0-0-0-0-0-0-0-0-0-0-0-0-0-0-0-0-0-0-||


F||--------------------------------------------------------||
C||--------------------------------------------------------||
G||--------------------------------------------------------||
D||-5-5-5-5-5-5-5-5-7p5-5-5-5-5-5/12/--5--5--5--5--5--5--5-||


F||----------------------------------------||
C||----------------------------------------||
G||-7-7-9p7-7-7-7-9p7-7-7-7-7-7-9p7-7-9p7-7||
D||----------------------------------------||

F||-----------------------------------||
C||-----------------------------------||
G||-7-7-7-7-9p7-7-7-7-7-7-7-7-9p7-7/9-||
D||-----------------------------------||


F||---------------------------||
C||---------------------------||
G||--------------/12--10--9--8||
D||-10--9--8--7---------------||

2:45
F||------------------------------------------------------||
C||------------------------------------------------------||
G||------------------------------------------------10-10-||
D||--12--12-12-12-12-12-12-12-12-12-12-12-12-12-12-------||


   "He pulled the mirrors off his Cadillac    (Yeah!)
F||-----------------------------------------------||
C||-----------------------------------------------||
G||-----------------------------------------------||
D||-12--12-12-12-12-12-12-12-12-12-12-12-12-12-12-||

  'Cause he doesn't like it
       looking like he looks back"               "He talks 
F||------------------------------------------------------||
C||------------------------------------------------------||
G||------------------------------------------------10-10-||
D||12-12-12-12-12-12-12-12-12-12-12-12-12-12-12-12-------||


     like his opinion is a simple
F||---------------------12-14p12--12h14-||
C||---------------12h14---------14------||
G||-------12--12------------------------||
D||-5--5/-------------------------------||

    fact"  
F||-----------------------------------------------------||
C||-----------------------------------------------------||
G||--------------------------------------------------10/||
D||-12--12-12-12-12-12-12-12-12-12-12-12-12-12-12-12----||

   "Somebody grabbed his collar
F||-----------------------------------------------||
C||-----------------------------------------------||
G||-----------------------------------------------||
D||-12--12-12-12-12-12-12-12-12-12-12-12-12-12-12-||

   He cried the whole way home"                   "No one
F||------------------------------------------------------||
C||------------------------------------------------------||
G||------------------------------------------------10-10-||
D||12-12-12-12-12-12-12-12-12-12-12-12-12-12-12-12-------||

   been remembered a 
               thing when they saw him 
F||---------------------12-14p12--12h14-||
C||---------------12h14---------14------||
G||-------12--12------------------------||
D||-5--5/-------------------------------||

     again"
F||-----------------------------------------------||
C||-----------------------------------------------||
G||-----------------------------------------------||
D||--12--12-12-12-12-12-12-12-12-12-12-12-12-12-12||

   "That's how it is
       'til the end"                                Yeah!
F||----------------------------------------------------------------||
C||--9-10-9-8-9-8-7------------------------------------------------||
G||-----------------<---------Drum Solo Fill------->---------10-10-||
D||----------------------------------------------------------------||


F||----------------------------------||
C||----------------------------------||
G||----------------------------------||
D||-12--12-12-12-12-12-12-12-12-12-12||



Thanks a lot for reading this tab, hope you liked it!
comments
We did not receive enough feedback on this tab! Please rate:
print report bad tab
1 2 3 4 5
I want to post or [tab]
guest
You may want to rate the tab now too:
select rating
Please do not post tabs as comments. Select "correction" instead!