Oops, an error
Loading. Please wait.

Endors Toi Bass Tab

version 1
version 1

Whole song

6,032 views 24 this week
2 commentsread comments
1 2 3 4 5
x 10
add to favorites
launch autoscroll
font size
0
reset
guitar tuner
Autoscroll
slow
fast
+/-
esc
set tempo
stop
Help us to improve Ultimate-Guitar.com Take our survey!
×
Author
Tame Impala ///// Endors Toi ///// Lonerism


Bass Tab


[0:33]
G||--------------------------------|
D||--------------------------------|
A||------11-/15------13--------11--|
E||-11----------13--------11-------|

[0:44]
G||------------------------------------------|
D||------------------------------------------|
A||-10-------------11-/15-15---13--------11--|
E||------13---11--------------------11-------|

[0:59]
G||------------------------------------------------|
D||------------------------------------------------|
A||-10-------------11-/15------13---11-10---13-11--|
E||------13---11----------13-----------------------|

[1:14]
G||---------------------------------------------|
D||---------------------------------------------|
A||-10---13--------11-------------13--------11--|
E||-----------11--------11---13--------11-------|

[1:29] -Soothing repeat… …and it works like a charm. But I
G||------------------------------------------|
D||------------------------------------------|
A||-10-------------11-/15------13--------11--|
E||------13---11----------13--------11-------|

[1:44] -won't be deprived… …go to sleep you'll be fine. In the
G||------------------------------------------|
D||------------------------------------------|
A||-10-------------11-/15------13---10---11--|
E||------13---11----------13-----------------|


[1:59] -morning you'll find, real life was such a grind.
G||-----------12-12---10-10\------------10--12--------|
D||--------12-----------------------------------------|
A||-10-10----------------------------13--------11-11--|
E||----------------------------11-11------------------|
        -Off I go day is done and a new ones just begun.
G||----------10-12-15---------------------------------|
D||-------12-------------------13-13-------12-13------|
A||-------------------13-13----------10-11------------|
E||-13-13---------------------------------------------|

[2:14]
G||-----------12-12---10-10\------------10--12--------|
D||--------12-----------------------------------------|
A||-10-10----------------------------13--------11-11--|
E||----------------------------11-11------------------|

G||----------10-12-15---------------------------------|
D||-------12------------------------------------------|
A||-------------------13-13----10-10-------10-11--11--|
E||-13-13----------------------------11-13------------|


[2:29]
G||-----------12-12---10-10\------------10--12--------|
D||--------12-----------------------------------------|
A||-10-10----------------------------13--------11-11--|
E||----------------------------11-11------------------|

G||----------10-12-15----------------------------13-13--|
D||-------12-------------------13-13-------12-13--------|
A||-------------------13-13----------10-11--------------|
E||-13-13-----------------------------------------------|

[2:44]
G||-----------12-12---10-10\------------10--12--------|
D||--------12-----------------------------------------|
A||-10-10----------------------------13--------11-11--|
E||----------------------------11-11------------------|

G||----------10-12-15----------------------------13-13-----------------|
D||-------12-------------------13-13-------12-13-----------------------|
A||-------------------13-13----------10-11-------------11h13p11\10-10--|
E||-13-13--------------------------------------------------------------|
Suggest correction
comments
print report bad tab
2 comments total.
0 reply
collideheads 10 Aug 01, 2013 03:22 PM

YOU ARE MISSING SOME PARTS LIKE AFTER THE INTRO PART

0 reply
centraljf 10 Sep 23, 2013 03:17 PM

the chorus!!! was weird to play

guest
You may want to rate the tab now too:
select rating
Wanna post a correction for this tab? Suggest correction