Oops, an error
Loading. Please wait.

Endors Toi Tab

version 1
version 1

Solo

  • This version of the solo is played without powerch... Show more

Whole song

91 views 18 this week
2 commentsread comments
1 2 3 4 5
3 more votes to show rating
add to favorites
launch autoscroll
font size
0
reset
how to read this tab
guitar tuner
Autoscroll
slow
fast
+/-
esc
set tempo
stop
Help us to improve Ultimate-Guitar.com Take our survey!
×
Author
Difficulty
Tuning
intermediate
D G C F A D
About this tab version
This version of the solo is played without powerchords and I think it's more or less the way Kevin plays it. Was this info helpful? Yes No
Tuning : DGCFAd
Tabbed by Florian Kubosi

[Solo]
d|----------------------------------|-----------------------------------------|
A|----------------------------------|-----------------------------------------|
F|------------------14--------------|-----------------------------------------|
C|----------------------------------|-----------------------------------------|
G|----------12--12----10---10-------|-8---8-----10-/12------------------------|
D|-5---5----------------------------|---------------------6--6----------------|

d|----------------------------------|-----------------------------------------|
A|----------------------------------|-----------------------------------------|
F|----------------------------------|-----------------------------------------|
C|--------------------------10------|-----------------------------------------|
G|----------10h12/15----------------|-----------------------------------------|
D|-3---3----------------8-----------|-1---1----5-6-5-6\---/6--6---------------|

d|----------------------------------|-----------------------------------------|
A|----------------------------------|-----------------------------------------|
F|------------------14--------------|-----------------------------------------|
C|----------------------------------|-----------------------------------------|
G|----------12--12----10---10-------|-8---8-----10/12-------------------------|
D|-5---5----------------------------|--------------------6--6-----------------|

d|----------------------------------|-----------------------------------------|
A|----------------------------------|---------------------------11------------|
F|----------------------------------|-12b14--14--14r12-10------------9--------|
C|----------------------------------|-----------------------------------------|
G|----------10h12/15----------------|-----------------------------------------|
D|-3---3----------------8---8-------|-----------------------------------------|


************************************

| /  Slide up
| h  Hammer-on
| \  Slide down
| r  Release
| b  Bend

************************************
Suggest correction
Give kudos to tab author, rate the tab!
1 2 3 4 5
comments
print report bad tab
2 comments total.
0 reply
TheFunkyBass 242 Nov 19, 2016 04:21 AM

Why not tab it in standard tuning? wtf

0 reply
TheFunkyBass 242 Nov 19, 2016 04:21 AM

didn't like this contribution

guest
You may want to rate the tab now too:
select rating
Wanna post a correction for this tab? Suggest correction