Oops, an error
Loading. Please wait.

Endors Toi Bass

version 2
version 2

Whole song

5,532 views 24 this week
4 commentsread comments
1 2 3 4 5
x 19
add to favorites
launch autoscroll
font size
0
reset
guitar tuner
×
Best way to learn
"Endors Toi"
Autoscroll
slow
fast
+/-
esc
set tempo
stop
Author
Difficulty
intermediate
G||----------------------------|
D||----------------------------|
A||-10---------------11--15----|
E||----11-10-11-13-11----------|


G||--------------------------------|
D||--------------------------------|
A||------11-/15------13--------11--|
E||-11----------13--------11-------|

G||------------------------------------------|
D||------------------------------------------|
A||-10-------------11-/15-15---13--------11--|
E||------13---11--------------------11-------|


G||------------------------------------------------|
D||------------------------------------------------|
A||-10-------------11-/15------13---11-10---13-11--|
E||------13---11----------13-----------------------|

G||---------------------------------------------|
D||---------------------------------------------|
A||-10---13--------11-------------13--------11--|
E||-----------11--------11---13--------11-------|


G||------------------------------------------|
D||------------------------------------------|
A||-10-------------11-/15------13--------11--|
E||------13---11----------13--------11-------|

G||------------------------------------------|
D||------------------------------------------|
A||-10-------------11-/15------13---10---11--|
E||------13---11----------13-----------------|

G||-------------------10/12----------10/12/15-|
D||-------------------------------------------|
A||--------10-13-78-6------13-1111-88--------6|
E||-3333/10-----13----------------------------|

G||-------------------10/12----------10/12/15-----|
D||-----------------------------------------------|
A||--------10-13-78-6------13-1111-88--------6--12|X3
E||-3333/10-----13--------------------------------|

BY YONATHANGARFIS
@YONATHANGARFIAS
Suggest correction
comments
print report bad tab
4 comments total. Showing first comments.
0 reply
MUSICWALK 10 Aug 01, 2013 11:07 AM

nice tab man!!!

0 reply
collideheads 10 Aug 01, 2013 11:19 AM

NICK ALLBROOK STYLE

0 reply
carterkelliott 678 Dec 17, 2015 12:19 PM

I don't know, man. The notes are just really wrong, same with the rhythm, the formatting is kind of off too... This didn't help with my learning of the song.

guest
You may want to rate the tab now too:
select rating
Wanna post a correction for this tab? Suggest correction