Oops, an error
Loading. Please wait.

Endors Toi Tab

version 2
version 2

Whole song

20,586 views 165 this week
1 commentread comment
1 2 3 4 5
excellent!
x 12
add to favorites
launch autoscroll
font size
0
reset
how to read this tab
guitar tuner
Autoscroll
slow
fast
+/-
esc
set tempo
stop
Help us to improve Ultimate-Guitar.com Take our survey!
×
Author
Difficulty
intermediate
Tame Impala - Endors Toi
from their 2012 album Lonerism


[Intro]

Rhythm guitar:
e|-----------------------------------------------------------------|
B|-3--3--3--3-3--3--6--6--6-6--6--4--4--4-4--4-4--4--4--4--4-4--4--|
G|-4--4--4--4-4--4--7--7--7-7--7--3--3--3-3--3-3--3--5--5--5-5--5--| \
D|-5--5--5--5-5--5--8--8--8-8--8--5--5--5-5--5-5--5--6--6--6-6--6--|  \
A|-5--5--5--5-5--5--8--8--8-8--8--6--6--6-6--6-6--6--6--6--6-6--6--|   \
E|-----------------------------------------------------------------|    |
                                                                        | x2
e|---------------------------------------------------------------|      |
B|-1--1-1-1--1-1--1--6--6--6-6--6--4--4--4--4-4-4--4--4--4-4--4--|     /
G|-2--2-2-2--2-2--2--7--7--7-7--7--3--3--3--3-3-3--5--5--5-5--5--|    /
D|-3--3-3-3--3-3--3--8--8--8-8--8--5--5--5--5-5-5--6--6--6-6--6--|   /
A|-3--3-3-3--3-3--3--8--8--8-8--8--6--6--6--6-6-6--6--6--6-6--6--|
E|---------------------------------------------------------------|

Synth lead:
e|-------------------------------------------------------------------|
B|-------------------------------------------------------------------|
G|-/12------\8--\7--/8\7--3-/5---/8-\7---/12-\8-/10--\8-\7--\-/5-\1--| x2
D|-------------------------------------------------------------------|
A|-------------------------------------------------------------------|
E|-------------------------------------------------------------------|


Drums kick in:
The guitar stops playing the chords and the synth plays them instead:
e|----------------------------------------|
B|-4--------4----4----1----6----4----4----|
G|----------3----5----2----7----3----5----|
D|----------5----6----3----8----5----6----|
A|----------6----6----3----8----6----6----|
E|----------------------------------------|

e|-----------------------------------------|
B|-3----6----4----4----1----6----4----4----|
G|-4----7----3----5----2----7----3----5----| x2
D|-5----8----5----6----3----8----5----6----|
A|-5----8----6----6----3----8----6----6----|
E|-----------------------------------------|

Synth lead:
e|-------------------------------------------------------------------|
B|-------------------------------------------------------------------|
G|-/12------\8--\7--/8\7--3-/5---/8-\7---/12-\8-/10--\8-\7--\-/5-\1--|
D|-------------------------------------------------------------------|
A|-------------------------------------------------------------------|
E|-------------------------------------------------------------------|

e|-----------------------------------------------------------------|
B|-----------------------------------------------------------------|
G|-/12------\8--\7--/8\7--3-/5---/8-\7---/12-\8-/10----/12--/15----|
D|-----------------------------------------------------------------|
A|-----------------------------------------------------------------|
E|-----------------------------------------------------------------|

e|------------------------------------------------------------------------------------|
B|------------------------------------------------------------------------------------|
G|-/17--\15--\12----/15--\12---/13--/17--\15----10\8/10----8\5/7--\3/5---/8--\7--/12--|
D|------------------------------------------------------------------------------------|
A|------------------------------------------------------------------------------------|
E|------------------------------------------------------------------------------------|


[Pre-Verse]

Synth:
e|-----------------------------------------|
B|-3----6----4----4----1----6----4----4----|
G|-4----7----3----5----2----7----3----5----|
D|-5----8----5----6----3----8----5----6----|
A|-5----8----6----6----3----8----6----6----|
E|-----------------------------------------|


[Verse]

"Soothing repeat, I look down at my feet,
It's a hypnotist's arm and it works like a charm,
But I won't be deprived, real worlds, surreal life,
Do or die, there is time, go to sleep, you'll be fine,
In the morning you'll find real life was such a grind,
Off I go, day is done where a new one's just begun"
Synth:
e|-----------------------------------------|
B|-3----6----4----4----1----6----4----4----|
G|-4----7----3----5----2----7----3----5----| x3
D|-5----8----5----6----3----8----5----6----|
A|-5----8----6----6----3----8----6----6----|
E|-----------------------------------------|


[Post-Verse]

Synth:
e|-----------------------------------------|
B|-3----6----4----4----1----6----4----4----|
G|-4----7----3----5----2----7----3----5----|
D|-5----8----5----6----3----8----5----6----|
A|-5----8----6----6----3----8----6----6----|
E|-----------------------------------------|


[Outro riff]

e|----------------------------------------------------------|
B|----------------------------------------------------------|
G|----------12--12--10.--10----8--8--8--10--/12-------------|
D|-5--5-----12--12--10.--10----8--8--8--10--/12----6.--6----|
A|-5--5-----10--10---8.---8----6--6--6---8--/10----6.--6----|
E|-3--3--/10---------------------------------------4.--4----|

e|----------------------------------------------------------|
B|----------------------------------------------------------|
G|-----------10-12-15----------8--8-------------------------|
D|-3--3--/8--10-12-15--8.-8----8--8--5-6-5-6----6.--6/8-----|
A|-3--3--/8---8-10-13--8.-8----6--6--5-6-5-6------------6\--|
E|-1--1--/6------------6.-6----------3-4-3-4----------------|

e|------------------------------------------------------------|
B|------------------------------------------------------------|
G|----------12--12--10.--10--/-\-8--8--8--10--/12-------------|
D|-5--5-----12--12--10.--10--/-\-8--8--8--10--/12----6.--6----|
A|-5--5-----10--10---8.---8--/-\-6--6--6---8--/10----6.--6----|
E|-3--3--/10-----------------------------------------4.--4----|

e|--------------------------------------------------------|
B|-----------------------------8-------------------9.-----|
G|-----------10-12-15----------10-b12--12r10--8--------7--|
D|-3--3--/8--10-12-15--8.-8-------------------------------|
A|-3--3--/8---8-10-13--8.-8-------------------------------|
E|-1--1--/6------------6.-6-------------------------------|

Synth plays the chords behind the solo:
e|-----------------------------------------|
B|-3----6----4----4----1----6----4----4----|
G|-4----7----3----5----2----7----3----5----| x2
D|-5----8----5----6----3----8----5----6----|
A|-5----8----6----6----3----8----6----6----|
E|-----------------------------------------|


[End]

Synth:
e|----------|
B|-3--------|
G|-4--------|
D|-5--------|
A|-5--------|
E|----------|


************************************

| r  Release
| b  Bend
| /  Slide up
| \  Slide down

************************************
Suggest correction
What's this?
You can suggest a correction to this tab. Community and Mods will review your correction and vote to approve or reject it.
comments
print report bad tab
1 comment total.
0 reply
shmoobie 27 wrote on December 10 2013, 11:40 am

This is perfect i love it. and if you have a big muff or nice fuzz and lots of delay, that last power chords riff sounds better with just the low E and A string notes instead of the whole chord at times. 5*****

guest
You may want to rate the tab now too:
select rating
Please do not post tabs as comments. Select "correction" instead!