Oops, an error
Loading. Please wait.

Expectation Bass Tab

2,350 views 27 this week
no commentswrite comment
1 2 3 4 5
excellent!
x 5
add to favorites
launch autoscroll
font size
0
reset
guitar tuner
Tab Pro tools
  • play this tab
  • loop segment
  • change instrument
  • show fretboard
  • metronome
Autoscroll
slow
fast
+/-
esc
set tempo
stop
Contributor
Difficulty
Tuning
intermediate
D G C F A D
D Tuning as always on Tame Impala's bass guitars. Hope you like it!

0:10
F||----------------------------------------------------------------||
C||----------------------------------------------------------------||
G||-5--10/--5--10/--5--10/--5--10/--5--10/--5--10/--5--10/--5--10/-||
D||----------------------------------------------------------------||


F||------------------------------------------------------------------------||
C||------------------------------------------------------------------------||
G||-----10--5-5/--10------10--5-5/--10------10--5-5/--10------10--5-5/--10-||
D||-10----------------10----------------10----------------10---------------||

"everything you ever told me
could have been a lie
we may never have been in
F||------------------------------||
C||------------------------------||
G||-----10--9--10------10--9--10-||
D||-10-------------10------------||

   love"
F||----------------------------------||
C||----------------------------------||
G||-----10--9-9--10------10--9-9--10-||
D||-10---------------10--------------||

"Stuck on thinking that there is
always something to lose
or a hit from a-
F||------------------------------||
C||------------------------------||
G||-----10--9--10------10--9--10-||
D||-10-------------10------------||

   -bove"                                                "or a hit from
F||-------------------------------------------------------------------||
C||-------------------------------------------------------------------||
G||-----10--9-9--10------10--9-9--10------10--9-9--10------10--9-9--10||
D||-10---------------10---------------10---------------10-------------||

  above"
F||-------------------------------------||
C||-12-12-12-12-12-12-12-12-12-12-11-11-||
G||-------------------------------------||
D||-------------------------------------||

"I don't need what i'm holding, what i'm holding on"
F||---------------------------------------------------------------------||
C||---------------------------------------------------------------------||
G||-----10/-5/-10---------10/-5/-10---------10/-5/-10---------10/-5/-10-||
D||-10-------------10-10-------------10-10-------------10-10------------||

 "I wish i knew, but
F||---------------------------------------------------------------------||
C||---------------------------------------------------------------------||
G||-----10/-5/-10---------10/-5/-10---------10/-5/-10---------10/-5/-10-||
D||-10-------------10-10-------------10-10-------------10-10------------||

    Meanwhile"
F||-------------------------||
C||--12---12-12/10-7/5-/7-8-||
G||-------------------------||
D||-------------------------||

   "Fluctuations are
    aching my soul"
F||------------------||
C||-------------7--5-||
G||-2--------5-------||
D||----2--3----------||

   Expectaction is
   takin it's toll
F||------------------||
C||-4--2--5-----7--5-||
G||----------5-------||
D||------------------||

   "Expectation is
   taking it's toll"
F||------------------||
C||-------------7--5-||
G||-2--------5-------||
D||----2--3----------||

 "'Cause everything you ever told me could have been a lie
we may never have been in love"
F||--------------------||
C||--------------------||
G||-2--4--5--7--12/-10-||
D||--------------------||

 1:57
F||---------------||
C||---12-12-12-12-||
G||---------------||
D||---------------||


F||---------------------------------------------------------------------||
C||---------------------------------------------------------------------||
G||-----10--5-5/--10------10--5-5/--10-----10--9-9--10------10--9-9/-10-||
D||-10----------------10----------------10---------------10-------------||

 "And then I will scape, i never ever see another dissapointed face
No one to please"
F||------------------------------------------------------------------------||
C||------------------------------------------------------------------------||
G||-12-12-12-12-12-12-12-12-12-12-12-12-12-12-12-12-12-12-12-12-12-12-12-12||
D||------------------------------------------------------------------------||

   "Every now and then it feels like" "In
F||------------------------------------||
C||------------------------------------||
G||-12-12-12-12-12-12-12-12-12-12-12-12||
D||------------------------------------||

    all of the universe, 
             there is nobody for
F||------------------------------||
C||------------------------------||
G||-0-2-3-2-3-5--3-5-7/12-10-9-7/||
D||------------------------------||


F||------------------------------------------------------------------------||
C||------------------------------------------------------------------------||
G||-12-12-12-12-12-12-12-12-12-12-12-12-12-12-12-12-12-12-12-12-12-12-12-12||
D||------------------------------------------------------------------------||

   "I told myself i wouldn't care, no I wouldn't care"
F||-------------------------------------------------------------------||
C||-------------------------------------------------------------------||
G||-----10--9-9--10------10--9-9--10------10--9-9--10------10--9-9--10||
D||-10---------------10---------------10---------------10-------------||

 "But when she said she'd come round I combed my hair, yes I checked my hair"
F||-------------------------------------------------------------------||
C||-------------------------------------------------------------------||
G||-----10--9-9--10------10--9-9--10------10--9-9--10------10--9-9--10||
D||-10---------------10---------------10---------------10-------------||


F||-------------------------------------||
C||-12-12-12-12-12-12-12-12-12-12-12-12-||
G||-------------------------------------||
D||-------------------------------------||

   Meanwhile.       Meanwhile.
F||---------------------------------------||
C||---------12----------------------------||
G||-10/-------------8h10----8h10-8-6-5----||
D||---------------------------------------||


F||--------------------||
C||---------5----/7/8--||
G||--------------------||
D||-3------------------||



bass enters at 3:42
  "Fluctuations is
    making me feel old
F||------------------||
C||-------------7--5-||
G||-2--------5-------||
D||----2--3----------||

   Expectaction is
   takin it's toll
F||------------------||
C||-4--2--5-----7--5-||
G||----------5-------||
D||------------------||

    Fluctuations are
     aching my soul
F||---------------------||
C||---------------------||
G||-2--4--5--12--12/-10-||
D||---------------------||

    Expectaction is
   takin it's toll
F||--------------------||
C||--------------------||
G||-2--4--5--5--12/-10-||
D||--------------------||

    Fluctuations are
     aching my soul
F||--------------------||
C||--------------------||
G||-2--4--5--5--12/-10-||
D||--------------------||

   Expectation is..." (fades out)
F||---------------------||
C||---------------------||
G||-2--4--5--12--12/-10-||
D||---------------------||


   (Fades in)
F||------------------------------------------------------------------------||
C||------------------------------------------------------------------------||
G||-12-12-12-12-12-12-12-12-12-12-12-12-12-12-12-12-12-12-12-12-12-12-12-12||
D||------------------------------------------------------------------------||



F||------------------------------------------------------------------||
C||------------------------------------------------------------------||
G||-0-2-3-2-3-5--3-5-7/12-10-9-7/-12-12-12-12-12-12-12-12-12-12-12-12||
D||------------------------------------------------------------------||

F||------------------------------------------------------------------||
C||------------------------------------------------------------------||
G||-0-2-3-2-3-5--3-5-7/12-10-9-7/-12-12-12-12-12-12-12-12-12-12-12-12||
D||------------------------------------------------------------------||

F||------------------------------------------------------------------||
C||------------------------------------------------------------------||
G||-0-2-3-2-3-5--3-5-7/12-10-9-7/-12-12-12-12-12-12-12-12-12-12-12-12||
D||------------------------------------------------------------------||

F||------------------------------------------------------------------||
C||------------------------------------------------------------------||
G||-0-2-3-2-3-5--3-5-7/12-10-9-7/-12-12-12-12-12-12-12-12-12-12-12-12||
D||------------------------------------------------------------------||

F||------------------------------------------------------------------||
C||------------------------------------------------------------------||
G||-0-2-3-2-3-5--3-5-7/12-10-9-7/-12-12-12-12-12-12-12-12-12-12-12-12||
D||------------------------------------------------------------------||

F||------------------------------------------------------------------||
C||------------------------------------------------------------------||
G||-0-2-3-2-3-5--3-5-7/12-10-9-7/-12-12-12-12-12-12-12-12-12-12-12-12||
D||------------------------------------------------------------------||
                               End.
F||------------------------------||
C||------------------------------||
G||-0-2-3-2-3-5--3-5-7/12-10-9-7-||
D||------------------------------||


Thanks for reading my tab!

comments
print report bad tab
I want to post or [tab]
guest
You may want to rate the tab now too:
select rating
Please do not post tabs as comments. Select "correction" instead!