Oops, an error
Loading. Please wait.

Feels Like We Only Go Backwards Bass Tab

version 1
version 1

Whole song

Interactive

102,403 views 360 this week
2 commentsread comments
1 2 3 4 5
accurate
x 44
add to favorites
launch autoscroll
font size
0
reset
guitar tuner
Tab Pro tools
  • play this tab
  • loop segment
  • change instrument
  • show fretboard
  • metronome
×
Best way to learn
"Feels Like We Only Go Backwards"
Autoscroll
slow
fast
+/-
esc
set tempo
stop
Contributor
Tame Impala ///// Feels Like We Only Go Backwards ///// Lonerism

Bass Tab


Intro
G||-----------------------||
D||-----------------------||
A||-10\--10\--10\--10\----||
E||-----------------------||

Chorus1
G||---------------------------------------------|
D||---------8-9-10-10---10----------------------|
A||-----8-8------------------10-10------10-10---|
E||-----------------------------------10--------|

G||-----------------------------------------------|
D||------8-9-10-10--10/12-------------------------|
A||--8-8------------------10-10----10--10--10--10-|
E||------------------------------10--10------10---|

G||-----------------------12-12----12---14--10--|
D||------8-9-10-10--10/12--------12--12---------|
A||--8-8----------------------------------------|
E||---------------------------------------------|

G||---------------------------------------------||
D||------8-9-10-10--10--8-8-----8--12\----------||
A||--8-8----------------------10-10--------10/--||
E||---------------------------------------------||



Verse1
G||----------------7--7----7---7-|
D||--------------7-------7---7---|
A||-5--5--5-5--5-----------------|
E||------------------------------|

G||-7-----------------------------------------|
D||--7-5-5-5-----------5-5-5------------------|
A||----------3-3--2h3---------3-3--2h3--2-3-4-|
E||-------------------------------------------|

G||----------------7--7--------|
D||--------------7-------------|
A||-5--5----5--5---------5--5--|
E||-------5--------------------|

G||----------------------------||
D||-3---5--5--5-5-5-5---5------||
A||----------------------------||
E||----------------------------||


Chorus2
G||------------------------------------------|
D||------8-9-10-10---10----------------------|
A||--8-8------------------10-10------10-10---|
E||--------------------------------10--------|

G||-----------------------------------------------|
D||------8-9-10-10--10/12-------------------------|
A||--8-8------------------10-10----10--10--10--10-|
E||------------------------------10--10------10---|

G||-----------------------12-12----12---14--10--|
D||------8-9-10-10--10/12--------12--12---------|
A||--8-8----------------------------------------|
E||---------------------------------------------|

G||---------------------------------------||
D||------8-9-10-10--10--8-8-----8---------||
A||--8-8----------------------10-10-10----||
E||---------------------------------------||


Verse2
G||----------------7--7----7---7-|
D||--------------7-------7---7---|
A||-5--5--5-5--5-----------------|
E||------------------------------|

G||-7-----------------------------------------|
D||--7-5-5-5-----------5-5-5------------------|
A||----------3-3--2h3---------3-3--2h3--2-3-4-|
E||-------------------------------------------|

G||----------------7--7--------|
D||--------------7-------------|
A||-5--5----5--5---------5--5--|
E||-------5--------------------|

G||----------------------------||
D||-3---5--5--5-5-5-5----------||
A||----------------------------||
E||----------------------------||


Chorus /// Outro
G||------------------------------------------|
D||------8-9-10-10---10----------------------|
A||--8-8------------------10-10------10-10---|
E||--------------------------------10--------|

G||-----------------------------------------------|
D||------8-9-10-10--10/12-------------------------|
A||--8-8------------------10-10----10--10--10--10-|
E||------------------------------10--10------10---|

G||-----------------------12-12----12---14--10--|
D||------8-9-10-10--10/12--------12--12---------|
A||--8-8----------------------------------------|
E||---------------------------------------------|

G||---------------------------------------||
D||------8-9-10-10--10-10--8-8------------||
A||--8-8----------------------------------||
E||---------------------------------------||


G||------------------------------------------|
D||------8-9-10-10--10/12--------------------|
A||--8-8------------------10-10------10-10---|
E||--------------------------------10--------|

G||-------------------------------------------12--|
D||------8-9-10-10--10/12------------------12-----|
A||--8-8------------------10-10----10--10---------|
E||------------------------------10---------------|

G||-----------------14--10--------------------------|
D||------8-9-10-10---------12-10-12-----------------|
A||--8-8----------------------------10-10------8-10-|
E||---------------------------------------8-10------|

G||----------------------------------------||
D||------8-9-10-10--10/12--8-8--8-8-8-8--8-||
A||--8-8-----------------------------------||
E||----------------------------------------||


G||------------------------------------------|
D||------8-9-10-10---10----------------------|
A||--8-8------------------10-10------10-10---|
E||--------------------------------10--------|

G||-----------------------------------------------|
D||------8-9-10-10--10/12-------------------------|
A||--8-8------------------10-10----10--10--10--10-|
E||------------------------------10--10------10---|

G||-----------------------12-12----12---14--10--|
D||------8-9-10-10--10/12--------12--12---------|
A||--8-8----------------------------------------|
E||---------------------------------------------|

G||---------------------------------------||
D||------8-9-10-10--10--8-8-----8---------||
A||--8-8----------------------10-10-10----||
E||---------------------------------------||



My best interpretation of the song. enjoy. 
comments
print report bad tab
2 comments total.
+1 reply
grantwurry wrote on November 15 2014, 10:09 am

Excellent tab, thank you.

+1 reply
NovaRedd wrote on May 4 2015, 01:48 am

This is just the way I've got these corrections drawn out, down know if it's proper timing or not but I think you're missing a lot in the verse. I realize you might have just been simplifying the tabs but it leaves out some of the coolest parts.
G||-----------------7--7--7--------|
D||---------------07----7----7-0--|
A||-5-5-5--5-5--5------------------|
E||--------------------------------|

G||----------------------------------------|
D||0-7--5-5-5-----------5-5-5---------------|
A||----------3-3--2h3---------3-3--2h3-----|
E||----------------------------------------|

G||----------------7----------|
D||--------------7---70---------|
A||-5--5----5-----------5--5--5--5|
E||-------5---5-0------5--5------|

G||----------------------------||
D||-3---5--5--5-5-5-5---5------||
A||----------------------------||
E||----------------------------||

I want to post or [tab]
guest
You may want to rate the tab now too:
select rating
Please do not post tabs as comments. Select "correction" instead!