Oops, an error
Loading. Please wait.

Feels Like We Only Go Backwards Bass Tab

version 2
version 2

Whole song

Interactive

19,520 views 33 this week
1 commentread comment
1 2 3 4 5
accurate
x 19
add to favorites
launch autoscroll
font size
0
reset
guitar tuner
Autoscroll
slow
fast
+/-
esc
set tempo
stop
Help us to improve Ultimate-Guitar.com Take our survey!
×
Author
--------------------------------------------------------
Feels Like We Only Go Backwards - Tame Impala (Lonerism)
--------------------------------------------------------

E-mail: jordansummers226@gmail.com
Tuning: D Standard (DGCF)

Intro (0:00-0:06)
F|--------------------|
C|--------------------|
G|-12\--12\--12\--12\-|
D|--------------------|


Chorus I (0:06-0:32)
F|-----------------------------------------------|
C|----------10-11-12--12---12--------------------|
G|-10--10----------------------12--12-----12--12-|
D|--------------------------------------12-------|

F|---------------------------------------------------------|
C|----------10-11-12--12---12/14---------------------------|
G|-10--10------------------------12--12-----12--12--12--12-|
D|----------------------------------------12--12------12---|

F|-------------------------------14--14-----14--/16---12-|
C|----------10-11-12--12---12/14----------14--14---------|
G|-10--10------------------------------------------------|
D|-------------------------------------------------------|

F|--------------------------------------------------------|
C|----------10-11-12--12--121212-10--10-----10--14--------|
G|-10--10---------------------------------12--12------12\-|
D|--------------------------------------------------------|

Verse (0:32-0:58)
F|-----------------------9---9--9-9----------------------------------------------------|
C|----------------------9--------9-9-------97--7--7\--------------7--7--7\-------------|
G|-7--7--7--777--7--7--7------------7--7--7-----------4h5--5---4h5---------4h5-5-5p4h5-|
D|-------------------------------------------------------------------------------------|

F|--------------------9----------------------------------|
C|---------------7h9----9------------------7--7---777--7-|
G|-7--7----7-7-----------7----7-7--7--7h9----------------|
D|--------7-7----------------7-7-------------------------|

Chorus II (0:58-1:24)
F|-----------------------------------------------|
C|----------10-11-12--12---12--------------------|
G|-10--10----------------------12--12-----12--12-|
D|--------------------------------------12-------|

F|---------------------------------------------------------|
C|----------10-11-12--12---12/14---------------------------|
G|-10--10------------------------12--12-----12--121212--12-|
D|----------------------------------------12--12------12---|

F|-------------------------------14--14-----14--/16---12-|
C|----------10-11-12--12---12/14----------14--14---------|
G|-10--10------------------------------------------------|
D|-------------------------------------------------------|

F|--------------------------------------------------|
C|----------10-11-12--12--121212-10--10-----10------|
G|-10--10---------------------------------12--1212\-|
D|--------------------------------------------------|

Verse (1:24-1:49)

Chorus III (1:49-2:15)
F|-----------------------------------------------|
C|----------10-11-12--12-------------------------|
G|-10--10----------------------12--12-----12--12-|
D|--------------------------------------12-------|

F|---------------------------------------------------------|
C|----------10-11-12--12---12/14---------------------------|
G|-10--10------------------------12--12-----12--121212--12-|
D|----------------------------------------12--12------12---|

F|-------------------------------14--14-----14--/16---12-|
C|----------10-11-12--12---12/14----------14--14---------|
G|-10--10------------------------------------------------|
D|-------------------------------------------------------|

F|--------------------------------------|
C|----------10-11-12--12--121212-10--10-|
G|-10--10-------------------------------|
D|--------------------------------------|

Chorus IV (2:15-2:41)
F|---------------------------------------------------------------|
C|----------10-11-12--12---12/14---------------------------------|
G|-10--10------------------------12--12-----12--12h14p12---------|
D|----------------------------------------12--12--------15p12h14-|

F|---------------------------------------------------------14/-|
C|----------10-11-12--12---12/14---------------------12h14-----|
G|-10--10------------------------12--12-----12--12h14----------|
D|----------------------------------------12--12---------------|

F|-------------------------12/16---12-------------------------|
C|----------10-11-12--12--------------14-12-------------------|
G|-10--10----------------------------------12--12-------10h12-|
D|-------------------------------------------------10h12------|

F|---------------------------------------|
C|----------10-11-12--12---12/14--10--10-|
G|-10--10--------------------------------|
D|---------------------------------------|

Chorus V (2:41-3:13)
F|-----------------------------------------------|
C|----------10-11-12--12---12--------------------|
G|-10--10----------------------12--12-----12--12-|
D|--------------------------------------12-------|

F|------------------------------------------------------------|
C|----------10-11-12--12---12/14------------------------------|
G|-10--10------------------------12--12-----12--121212--12h14-|
D|----------------------------------------12--12------12------|

F|-------------------------------14--14-----14--/16---12-|
C|----------10-11-12--12---12/14----------14--14---------|
G|-10--10------------------------------------------------|
D|-------------------------------------------------------|

F|-----------------------------------------------|
C|----------10-11-12--12--121212-10--10-----10---|
G|-10--10---------------------------------12--12-|
D|-----------------------------------------------|
Suggest correction
There is a new version of this tab from today which you may like more. Go check it out:
comments
print report bad tab
1 comment total.
0 reply
rambo_ando 10 wrote on March 12 2013, 01:03 pm

Nice. Any idea what effect Dominic Simper uses to give it that nice warm fuzz?

guest
You may want to rate the tab now too:
select rating
Please do not post tabs as comments. Select "correction" instead!