Oops, an error
Loading. Please wait.

Feels Like We Only Go Backwards Bass

version 3
version 3

Whole song

Interactive

6,704 views 3 this week
3 commentsread comments
1 2 3 4 5
x 20
add to favorites
launch autoscroll
font size
0
reset
guitar tuner
backing track
0:00
0:00
Autoscroll
slow
fast
+/-
esc
set tempo
stop
Author
Difficulty
novice
G||----------------------------------|
D||----------------------------------|
A||----------------------------------| 
E||--14/-14/-14/-14/-----------------|


G||-----------------------------------------------------------------------------|
D||------------------------------------------------1515--15--17-13--------------|
A||------131313-----------131313-15--------1313--15----15--15---------131313----| 
E||--1313------151515-1313---------1515-1313----------------------1313------1616|

F|-----------------------7---7--7-7-------------------------------|
C|----------------------7--------7-7-------577--7--7/-------------|
G|-5--5--5--55--5--5--5------------5--5--5--------------1010--1010|
D|----------------------------------------------------------------|


G||-----------------------------------------------------------------------------|
D||------------------------------------------------1515--15--17-13--------------|
A||------131313-----------131313-15--------1313--15----15--15---------131313----| 
E||--1313------151515-1313---------1515-1313----------------------1313------1616|


F|-----------------------7---7--7-7-------------------------------|
C|----------------------7--------7-7-------577--7--7/-------------|
G|-5--5--5--55--5--5--5------------5--5--5--------------1010--1010|
D|----------------------------------------------------------------|

G||-----------------------------------------------------------------------------|
D||------------------------------------------------1515--15--17-13--------------|
A||------131313-----------131313-15--------1313--15----15--15---------131313----| 
E||--1313------151515-1313---------1515-1313----------------------1313------1616|


BY YONATHANGARFIAS
@YONATHANGARFIAS
Suggest correction
comments
print report bad tab
3 comments total.
-2 reply
collideheads 10 Aug 05, 2013 11:47 AM

nicee!!!!!!

+1 reply
ciwi 178 Jan 22, 2015 03:11 PM

didn't like this contribution

+1 reply
cooper.hallam 36 May 14, 2015 04:24 AM, edited at 04:56 pm

Clearly wrong. clearly wrong. you are clearly subitting incorrect tabs and getting fake ratings and comments. Stop ruining it for all the good Tame Impala tabs out there.

guest
You may want to rate the tab now too:
select rating
Wanna post a correction for this tab? Suggest correction