Oops, an error
Loading. Please wait.

Feels Like We Only Go Backwards Bass Tab

version 4
version 4

Whole song

Interactive

499 views 42 this week
no commentswrite comment
1 2 3 4 5
x 4
add to favorites
launch autoscroll
font size
0
reset
guitar tuner
Autoscroll
slow
fast
+/-
esc
set tempo
stop
Help us to improve Ultimate-Guitar.com Take our survey!
×
Author
Difficulty
About this tab version
This version is adapted to standard tuning. Was this info helpful? Yes No
Feels Like We Only Go Backwards - Tame Impala (Lonerism)
Tuning: Standard (EADG)

I took the time to analyze the bassline & tab it out the best I could. I hope you like it. Please rate!

(Intro)

G|---------------------||
D|---------------------||
A|-10\--10\--10\--10\--||
E|---------------------||

(Chorus 1)

It feels like I only go backwards baby,
Every part of me says go ahead,
I've got my hopes up again oh no, not again.
It feels like we only go backwards, darlin'.

G|-----------------------------------------|
D|------8-9-10-10---10---------------------|
A|--8-8------------------10-10------10-10--|
E|--------------------------------10-------|

G|------------------------------------------------|
D|------8-9-10-10--10/12--------------------------|
A|--8-8------------------10-10----10--10--10--10--|
E|------------------------------10--10------10----|

G|-----------------------12-12----12---12/14-------|
D|------8-9-10-10--10/12--------12--12--------15\--|            
A|--8-8--------------------------------------------|
E|-------------------------------------------------|

G|-----------------------------------------------||
D|------8-9-10-10--1010--8-8-----8--12-----------||
A|--8-8------------------------10-10--------10\--||
E|-----------------------------------------------||

(Verse 1)

I know that you think you sound silly when you call my name.
But I get it inside my head all day
Then I realise I'm just holding on to the hope that maybe your feelings don't show.

G|-----------------7--7--7---7-------------------|
D|----------------7--------7---7-------7-5-5-5\--|             
A|-5--5--5-5-5---5---------------5-5-5-----------|
E|-----------------------------------------------|

G|--------------------------------|
D|-----------5-5-5----------------|
A|-3-3--2h3---------3-3-3--3-2-3--|
E|--------------------------------|

G|----------------------7-----------------------------------------||          
D|------------------5/7---7-----------------------5--5--5-5-5--5--||
A|-5--5-----5---5-----------5-----5---5--5--5/7-------------------||
E|--------5---5-----------------5---5-----------------------------||           
 
(Chorus 2)

It feels like I only go backwards, baby,
Every part of me says go ahead,
I've got my hopes up again oh no, not again.
It feels like I only go backwards, darlin'.

G|-----------------------------------------|
D|------8-9-10-10---10---------------------|
A|--8-8------------------10-10------10-10--|
E|--------------------------------10-------|

G|------------------------------------------------|
D|------8-9-10-10--10/12--------------------------|
A|--8-8------------------10-10----10--10--10--10--|
E|------------------------------10--10------10----|

G|-----------------------12-12----12---12/14-------|
D|------8-9-10-10--10/12--------12--12--------15\--|            
A|--8-8--------------------------------------------|
E|-------------------------------------------------|

G|----------------------------------------||
D|------8-9-10-10--1010--8-8-----8--------||
A|--8-8------------------------10-10-10\--||
E|----------------------------------------||

(Verse 2)

The seed of all this indecision isn't me, oh no
Cause I decided long ago
That that's the way it seems to go,
I tried so hard to get to something real.
It feels...

G|-----------------7--7--7---7-------------------|
D|----------------7--------7---7-------7-5-5-5\--|             
A|-5--5--5-5-5---5---------------5-5-5-----------|
E|-----------------------------------------------|

G|--------------------------------|
D|-----------5-5-5----------------|
A|-3-3--2h3---------3-3-3--3-2-3--|
E|--------------------------------|

G|----------------------7-----------------------------------------||
D|------------------5/7---7-----------------------5--5--5-5-5--5--||
A|-5--5-----5---5-----------5-----5---5--5--5/7-------------------||
E|--------5---5-----------------5---5-----------------------------||

(Chorus 3)

It feels like I only go backwards, baby,
Every part of me says go ahead,
I've got my hopes up again oh no, not again.
It feels like we only go backwards, darlin'.

G|---------------------------------------|
D|------8-9-10-10------------------------|
A|--8-8----------------10-10------10-10--|
E|------------------------------10-------|

G|------------------------------------------------|
D|------8-9-10-10--10/12--------------------------|
A|--8-8------------------10-10----10--10--10--10--|
E|------------------------------10--10------10----|

G|-----------------------12-12----12---12/14-------|
D|------8-9-10-10--10/12--------12--12--------15\--|            
A|--8-8--------------------------------------------|
E|-------------------------------------------------|

G|----------------------------||
D|------8-9-10-10--1010--8-8--||
A|--8-8-----------------------||
E|----------------------------||

(Outro)

It feels like I only go backwards, baby,
Every part of me says go ahead,
I've got my hopes up again oh no, not again.
It feels like we only go backwards, darlin'.

G|---------------------------------------------------|
D|------8-9-10-10--10/12-----------------------------|
A|--8-8------------------10-10----10--10--10---------|
E|------------------------------10--10------10-8-10--|

G|--------------------------------------------12--|
D|------8-9-10-10--10/12------------------/12-----|   
A|--8-8------------------10-10----10--10----------|
E|------------------------------10--10------------|

G|-----------------/14--------------------------|
D|------8-9-10-10-------12----------------------|      
A|--8-8-------------------------10\-------8h10--|
E|-------------------------10-8------8h10-------|

G|-----------------------------||
D|------8-9-10-10--10/12--8-8--||
A|--8-8------------------------||
E|-----------------------------||

It feels like I only go backwards, baby,
Every part of me says go ahead,
I've got my hopes up again oh no, not again.
It feels like we only go backwards, darlin'.

G|---------------------------------------|
D|------8-9-10-10------------------------|
A|--8-8----------------10-10------10-10--|
E|------------------------------10-------|

G|------------------------------------------------|
D|------8-9-10-10--10/12--------------------------|
A|--8-8------------------10-10----10--10--10--10--|
E|------------------------------10--10------10----|

G|-----------------------12-12----12---12/14-------|
D|------8-9-10-10--10/12--------12--12--------15\--|            
A|--8-8--------------------------------------------|
E|-------------------------------------------------|

G|------------------------------------||
D|------8-9-10-10--1010--8-8-----8----||
A|--8-8------------------------10-10--||
E|------------------------------------||
Suggest correction
comments
print report bad tab
guest
You may want to rate the tab now too:
select rating
Wanna post a correction for this tab? Suggest correction