Oops, an error
Loading. Please wait.

Half Full Glass Of Wine Bass

version 1
version 1

Whole song

20,783 views 51 this week
no commentswrite comment
1 2 3 4 5
x 8
add to favorites
×
Save as Personal and add changes to this tab that will be seen only by you. Learn more ›
×
You can save this tab as Personal to edit and correct it or add notes. All changes will be seen only by you. Learn more »
save as personal
new!
launch autoscroll
font size
0
reset
guitar tuner
backing track
0:00
0:00
Autoscroll
slow
fast
+/-
esc
set tempo
stop
Artist:Tame Impala
Song: Half Full Glass of Wine
Album: Tame Impala EP
Tuning: Standard

[Drums intro]

[Guitar riff](repeating)
(slowing down and bass entering (guitar and bass riff 2x))
G|--------------------------------------------------------------------|
D|--------------------------------------------------------------------|
A|--------------------------------------------------------------------|
E|-8--8--11b--8----8--11b---8---8-11b--8---8--11b---8---8---11b--8----|

G|-------------------------------------------------------------------|
D|-10--------------------------------10--8--10-----------------------|
A|-------10----------------8--10-------------------------------------|
E|--------------8----11----------------------------------------------|
(sung verse)

G|------------------------------------------------------------------|
D|------------------------------------------------------------------|
A|------------------------------------------------------------------|
E|-8---8-8---8-8---8-8----------------------------------------------|

[Verse riff] (x1)
G|------------------------------------------------------------------|
D|------------------------------------------------------------------|
A|------------------------------------------------------------------|
E|-8--8--11b--8----8--11b---8---8-11b--8---8--11b---8---8---11b--8--|

[Verse]
G|------------------------------------------------------------------|
D|------------------------------------------------------------------|
A|------------------------------------------------------------------|
E|-8---8-8---8-8---8-8----------------------------------------------|

[Verse riff](guitar plays an octave higher with slight variation)
G|------------------------------------------------------------------|
D|------------------------------------------------------------------|
A|-------------------8--9-10----------------------------------------|
E|-8--8--11b--8--------------8---8--6---6---------------------------|

[Interlude 1]
G|----------------------------------------------------------------------|
D|----------------------------------------------------------------------|
A|--8---8-8---8-8---8-8---8-8---8-8---8-8---8---------------------------|
E|----------------------------------------------------------------------|

(sung verse)( 2nd time with harmonized vocals)
G|-------------------------------------------------------------------|
D|-------------------------------------------------------------------|
A|-------------------------------------------------------------------|
E|-8---8-8---8-8---8-8--8-8---8-8--8-8---8-8---8-8---8-8---8-8-------|

G|------------------------------------------------------------------|
D|------------------------------------------------------------------|
A|------------------------------------------------------------------|
E|-8-8----8-8---8-8-------------------------------------------------|

[Interlude 1]
G|------------------------------------------------------------------|
D|------------------------------------------------------------------|
A|-8-8--8-8--8-8--8-8--8--------------------------------------------|
E|------------------------------------------------------------------|

[Guitar and bass riff](2x)
G|------------------------------------------------------------------|
D|------------------------------------------------------------------|
A|------------------------------------------------------------------|
E|-8--8--11b--8----8--11b---8---8-11b--8---8--11b---8---8---11b--8--|

G|------------------------------------------------------------------|
D|-----10----------------------------10--8---10---------------------|
A|----------10--------------8--10-----------------------------------|
E|---------------8----11--------------------------------------------|

[Chorus]
G|--------------------------------------------------------------------|
D|--------------------5-------------------------------5---------------|
A|-----------5---------------------------------5----------------------|
E|--3---3---------3-------3----1-------3---3-------3-----3----1-------|

G|------------------------------------------------------------------|
D|-------------5-----------------------------5----------------------|
A|------5-----------------------------5-----------------------------|
E|-3-3------3-----3----1-------3---3------3-----3----1---3----3-3---|

G|-----------------------------------------------------------------|
D|-----------------------------------------------------------------|
A|-----------------------------------------------------------------|
E|--3-3---3-3---3--------------------------------------------------|

[Guitar and bass riff ](2x)
G|------------------------------------------------------------------|
D|------------------------------------------------------------------|
A|------------------------------------------------------------------|
E|-8--8--11b--8----8--11b---8---8-11b--8---8--11b---8---8---11b--8--|

G|------------------------------------------------------------------|
D|-----10----------------------------10--8---10---------------------|
A|----------10--------------8--10-----------------------------------|
E|---------------8----11--------------------------------------------|

(sung verse)(x1, modified with drum and guitar accents)
G|------------------------------------------------------------------|
D|------------------------------------------------------------------|
A|------------------------------------------------------------------|
E|-8---8-8---8-8---8-8----------------------------------------------|

{Verse riff}(guitar plays an octave higher with slight variation)
G|---------------------------------------------------------------------|
D|---------------------------------------------------------------------|
A|-------------------8--9-10-------------------------------------------|
E|-8--8--11b--8---------------8--8-----6--6----------------------------|

[Interlude 1]
G|------------------------------------------------------------------|
D|------------------------------------------------------------------|
A|--8--8-8---8-8---8-8---8-8---8-8---8-8---8-8--8-------------------|
E|------------------------------------------------------------------|

[Verse riff]
G|------------------------------------------------------------------|
D|------------------------------------------------------------------|
A|------------------------------------------------------------------|
E|-8--8--11b--8----8--11b---8---8-11b--8---8--11b---8---8---11b--8--|

[Bridge/solo/interlude 1](2nd time with harmonized vocals)
G|------------------------------------------------------------------|
D|------------------------------------------------------------------|
A|------------------------------------------------------------------|
E|-8---8-8---8-8---8-8--8-8---8-8--8-8---8-8------------------------|

G|------------------------------------------------------------------|
D|------------------------------------------------------------------|
A|------------------------------------------------------------------|
E|--8-8---8-8---8-8---8-8----8-8---8-8---8-8---8-8---8-8------------|

G|------------------------------------------------------------------|
D|------------------------------------------------------------------|
A|------------------------------------------------------------------|
E|-8-8---8-8---8-8--8-8---8-8--8-8---8-8----8-8---8-8---8-8---8-8---|

G|------------------------------------------------------------------|
D|------------------------------------------------------------------|
A|------------------------------------------------------------------|
E|-8-8---8-8--------------------------------------------------------|

[Interlude 1](longer duration)
G|------------------------------------------------------------------|
D|------------------------------------------------------------------|
A|--8--8-8---8-8--8-8--8-8--8-8--8-8--8-8--8------------------------|
E|------------------------------------------------------------------|

[Guitar and bass riff](2x)
G|------------------------------------------------------------------|
D|------------------------------------------------------------------|
A|------------------------------------------------------------------|
E|-8--8--11b--8----8--11b---8---8-11b--8---8--11b---8---8---11b--8--|

G|------------------------------------------------------------------|
D|-----10----------------------------10--8---10---------------------|
A|----------10--------------8--10-----------------------------------|
E|---------------8----11--------------------------------------------|

[Chorus](longer ending chord)
G|-------------------------------------------------------------------|
D|------------------------5------------------------------5-----------|
A|-----------5------------------------------------5------------------|
E|--3---3---------3----------3----1-------3---3-------3-----3----1---|

G|------------------------------------------------------------------|
D|-------------5-----------------------------5----------------------|
A|------5-----------------------------5-----------------------------|
E|-3-3------3-----3----1-------3---3------3-----3----1---3----3-3---|

G|-----------------------------------------------------------------|
D|-----------------------------------------------------------------|
A|-----------------------------------------------------------------|
E|--3-3---3-3---3-3---3-3---3-3---3-3---3--------------------------|

[Interlude 2]
G|------------------------------------------------------------------|
D|------------------------------------------------------------------|
A|------------------------------------------------------------------|
E|--8---8-8---8-8---8-8---8-11---11-11--11-6---6-6--6-8---8-8-------|

G|-----------------------------------------------------------------|
D|-----------------------------------------------------------------|
A|-----------------------------------------------------------------|
E|--8-8--3---6---11---11-11--11-6--6-6--6-8--8-8-------------------|

G|-----------------------------------------------------------------|
D|-----------------------------------------------------------------|
A|-----------------------------------------------------------------|
E|---8-8----3---6---11---11-11--11---6---6-6---6-------------------|

G|-----------------------------------------------------------------|
D|-----------------------------------------------------------------|
A|-----------------------------------------------------------------|
E|---8---8-8---8-8--3---6---11---11-11---11-6--6-6---6-------------|

[Guitar solo](repeat however many times)
G|-----------------------------------------------------------------|
D|-----------------------------------------------------------------|
A|-----------------------------------------------------------------|
E|-8--8--11b--8----8--11b---8---8-11b--8---8--11b---8---8---11b--8-|

[drum solo]

************************************

| b  Bend

************************************
Suggest correction
comments
print report bad tab
guest
You may want to rate the tab now too:
select rating
Wanna post a correction for this tab? Suggest correction