Oops, an error
Loading. Please wait.

Half Full Glass Of Wine Tab

version 1
version 1

Whole song

81,065 views 171 this week
16 commentsread comments
1 2 3 4 5
x 40
add to favorites
launch autoscroll
font size
0
reset
how to read this tab
guitar tuner
Autoscroll
slow
fast
+/-
esc
set tempo
stop
Help us to improve Ultimate-Guitar.com Take our survey!
×
Author
[Intro]

Drum intro(hi-hat) 


(fast)

E|-----------------------------------------------------|
B|-----------------------------------------------------|
G|-----------------------------------------------------|
D|-----6B-------6B-------6B-------6B-----ETC-----------|SLOW DOWN AT THE END
A|-8-8----8---8----8---8----8---8----8-----------------|
E|-----------------------------------------------------|


[Main Riff]

(slow)

E|----------------------------------------------------|
B|----------------------------------------------------|
G|----------------------------------------------------|
D|----------------------------------------------------| 
A|-----6B-------6B-------6B-------6B-------6B---------|
E|-8-8----8---8----8---8----8---8----8---8----8-------|


[Fill 1 thing]      

x2

E|----------------------------------------------------|
B|----------------------------------------------------|
G|---------------------9----7-----9-------------------|
D|-10-----------------10----8-----10------------------|
A|----10----6--8--10----------------------------------|
E|-------8--------------------------------------------| 

E|-----------------------------|
B|-----------------------------|
G|-----------------------------|
D|-----------------------------|
A|-----------------------------|
E|---8----8-8----8-8----8-8----|

SAID YOU WOULDNT BE HOME LATE TONIGHT....


[Main riff]

E|------------------------------------------------------|
B|------------------------------------------------------|
G|------------------------------------------------------|
D|------------------------------------------------------|
A|-------6B-------6B-------6B-------6B-------6B---------|
E|-8-8-8----8---8----8---8----8---8----8---8----8-------| 

E|-----------------------------|
B|-----------------------------|
G|-----------------------------|
D|-----------------------------|
A|-----------------------------|
E|---8----8-8----8-8----8-8----|
 I gave up waiting at 17 past midnight..

 
[Fill 2 thing]

(0:45)
E|-----------------------------------------------------|
B|-----------------------------------------------------|
G|---------8B--------------------9--/--7--7------------|
D|-8-10-10----10-----------------X--/--X--X------------|
A|-----------------8--9--10------10-/--8--8------------|
E|-------------------------------8--/--6--6------------|


Now my only companys a half full glass of wine

E|----------------------------------------------------------------|
B|--10---10-10---10-10---10-10---10---10-10---10---10-10---10-10--|
G|--10---10-10---10-10---10-10---10---10-10---10---10-10---10-10--|
D|--10---10-10---10-10---10-10---10---10-10---10---10-10---10-10--|
A|--8----8--8----8--8----8--8----8----8--8----8----8--8----8--8---|
E|----------------------------------------------------------------|

E|----------------------------------------------------|
B|----------------------------------------------------|
G|----------------------------------------------------|
D|----------------------------------------------------| 
A|-----6B-------6B-------6B-------6B-------6B---------|
E|-8-8----8---8----8---8----8---8----8---8----8-------|

E|-----------------------------|
B|-----------------------------|
G|-----------------------------|
D|-----------------------------|
A|-----------------------------|                 x abit
E|---8----8-8----8-8----8-8----|
Leave me no choice but to plot my revenge x2


E|----------------------------------------------------------------|
B|--10---10-10---10-10---10-10---10---10-10---10---10-10---10-10--|
G|--10---10-10---10-10---10-10---10---10-10---10---10-10---10-10--|
D|--10---10-10---10-10---10-10---10---10-10---10---10-10---10-10--|
A|--8----8--8----8--8----8--8----8----8--8----8----8--8----8--8---|
E|----------------------------------------------------------------|


[Main riff]

E|----------------------------------------------------|
B|----------------------------------------------------|
G|----------------------------------------------------|
D|----------------------------------------------------| 
A|-----6B-------6B-------6B-------6B-------6B---------|
E|-8-8----8---8----8---8----8---8----8---8----8-------|


[Fill 1 thing] 
     
x2

E|----------------------------------------------------|
B|----------------------------------------------------|
G|---------------------9----7-----9-------------------|
D|-10-----------------10----8-----10------------------|
A|----10----6--8--10----------------------------------|
E|-------8--------------------------------------------| 


[Chorus]

(IT'S BEEN SOOOO LONG...)
                                   
E|-------------------------------------6---------------|
B|----------------10-------------------6---------------|
G|----------------10-------------------7---------------|
D|-----------5----10-------------5-----8---------------|
A|-------5--------8----------5---------8---------------|
E|---3-3---3---3---------3-3---3---3---6---------------|  X3

Then:
                      
E|----------------------3--3-3---3-3--3-3-----|
B|----------------10----3--3-3---3-3--3-3-----|
G|----------------10----4--4-4---4-4--4-4-----|
D|-----------5----10----5--5-5---5-5--5-5-----|
A|-------5--------8-----5--5-5---5-5--5-5-----|
E|---3-3---3---3--------3--3-3---3-3--3-3-----|


[Main riff]

E|----------------------------------------------------|
B|----------------------------------------------------|
G|----------------------------------------------------|
D|----------------------------------------------------| 
A|-----6B-------6B-------6B-------6B-------6B---------|
E|-8-8----8---8----8---8----8---8----8---8----8-------|


[Fill 1 thing]                                                  

x2

E|----------------------------------------------------|
B|----------------------------------------------------|
G|---------------------9----7-----9-------------------|
D|-10-----------------10----8-----10------------------|
A|----10----6--8--10----------------------------------|
E|-------8--------------------------------------------| 

E|-----------------------------|
B|-----------------------------|
G|-----------------------------|
D|-----------------------------|
A|-----------------------------|                
E|---8----8-8----8-8----8-8----|

Thank god ive been blessed with a patient mind


[Main riff]

E|------------------------------------------------------|
B|------------------------------------------------------|
G|------------------------------------------------------|
D|------------------------------------------------------|
A|-------6B-------6B-------6B-------6B-------6B---------|
E|-8-8-8----8---8----8---8----8---8----8---8----8-------| 

E|-----------------------------|
B|-----------------------------|
G|-----------------------------|
D|-----------------------------|
A|-----------------------------|
E|---8----8-8----8-8----8-8----|
 Cos what I want to happen wont happen in a very long time


[Fill 2 thing]

(0:45)
E|-----------------------------------------------------|
B|-----------------------------------------------------|
G|---------8B--------------------9--/--7--7------------|
D|-8-10-10----10-----------------X--/--X--X------------|
A|-----------------8--9--10------10-/--8--8------------|
E|-------------------------------8--/--6--6------------|


Now my only companys a half full glass of wine
E|----------------------------------------------------------------|
B|--10---10-10---10-10---10-10---10---10-10---10---10-10---10-10--|
G|--10---10-10---10-10---10-10---10---10-10---10---10-10---10-10--|
D|--10---10-10---10-10---10-10---10---10-10---10---10-10---10-10--|
A|--8----8--8----8--8----8--8----8----8--8----8----8--8----8--8---|
E|----------------------------------------------------------------|


[Main riff]

E|----------------------------------------------------|
B|----------------------------------------------------|
G|----------------------------------------------------|
D|----------------------------------------------------| 
A|-----6B-------6B-------6B-------6B-------6B---------|
E|-8-8----8---8----8---8----8---8----8---8----8-------|

E|-----------------------------|
B|-----------------------------|
G|-----------------------------| for quite a while
D|-----------------------------|
A|-----------------------------|
E|---8----8-8----8-8----8-8----|
…Leave me no choice but to plot my revenge… x2


Then
E|----------------------------------------------------------------|
B|--10---10-10---10-10---10-10---10---10-10---10---10-10---10-10--|
G|--10---10-10---10-10---10-10---10---10-10---10---10-10---10-10--|
D|--10---10-10---10-10---10-10---10---10-10---10---10-10---10-10--|
A|--8----8--8----8--8----8--8----8----8--8----8----8--8----8--8---| x2
E|----------------------------------------------------------------|


[Main riff]

E|----------------------------------------------------|
B|----------------------------------------------------|
G|----------------------------------------------------|
D|----------------------------------------------------| 
A|-----6B-------6B-------6B-------6B-------6B---------|
E|-8-8----8---8----8---8----8---8----8---8----8-------|


[Fill 1 thing]
                                                  
x2

E|----------------------------------------------------|
B|----------------------------------------------------|
G|---------------------9----7-----9-------------------|
D|-10-----------------10----8-----10------------------|
A|----10----6--8--10----------------------------------|
E|-------8--------------------------------------------| 


[Chorus]

(IT'S BEEN SOOOO LONG...)
                                   
E|-------------------------------------6---------------|
B|----------------10-------------------6---------------|
G|----------------10-------------------7---------------|
D|-----------5----10-------------5-----8---------------|
A|-------5--------8----------5---------8---------------|
E|---3-3---3---3---------3-3---3---3---6---------------|  X3


then:
                      
E|----------------------3--3-3---3-3--3-3--|
B|----------------10----3--3-3---3-3--3-3--|
G|----------------10----4--4-4---4-4--4-4—-|but play the 
D|-----------5----10----5--5-5---5-5--5-5—-|G for a lot longer than
A|-------5--------8-----5--5-5---5-5--5-5—-|the first time and then..
E|---3-3---3---3--------3--3-3---3-3--3-3--|


(3:29)

E|-8---8--8---8--8---8--8--------------6---6--6--------|
B|-8---8--8---8--8---8--8---8---8--8---6---6--6--------|
G|-9---9--9---9--9---9--9---8---8--8---7---7--7--------|
D|-10--10-10--10-10--10-10--8---8--8---8---8--8--------|
A|-10--10-10--10-10--10-10--6---6--6---8---8--8--------|
E|-8---8--8---8--8---8--8--------------6---6--6--------|


E|-8---8--8---8--8---3-/-6--------------6---6--6--------|
B|-8---8--8---8--8---3-/-6---8---8--8---6---6--6--------|
G|-9---9--9---9--9---4-/-7---8---8--8---7---7--7--------|
D|-10--10-10--10-10--5-/-8---8---8--8---8---8--8--------|x3
A|-10--10-10--10-10--5-/-8---6---6--6---8---8--8--------|
E|-8---8--8---8--8---3-/-6--------------6---6--6--------|


[Solo]

3:44

E|-----------------------------------------------------|
B|-----------------------------------------------------|
G|----11b-11b-11b-11b----11p9--------------------------|
D|-------------------------------11p9-9----------------|
A|-----------------------------------------------------|
E|-----------------------------------------------------|   X5


Then finishes with drum solo



************************************

| p  Pull-off
| b  Bend
| /  Slide up

************************************
Suggest correction
comments
print report bad tab
16 comments total. Showing first comments.
+4 reply
gahligahli 10 May 19, 2009 08:37 AM

great!

i have seen it played live a few times in different places on the neck than shown here but those chords are spot on.

more tame impala plz+thx you legend.

0 reply
kiss08 115 May 23, 2009 01:27 AM

yeh live they play it up higher on the neck but this is how it was recorder, i will be uploading more tame impala tabs soon

+2 reply
GDrock! 30 Jul 11, 2009 07:32 AM

nice work man. peace!

guest
You may want to rate the tab now too:
select rating
Wanna post a correction for this tab? Suggest correction