Oops, an error
Loading. Please wait.

Half Full Glass Of Wine Bass Tab

version 2
version 2

Whole song

5,928 views 30 this week
1 commentread comment
1 2 3 4 5
excellent!
x 15
add to favorites
launch autoscroll
font size
0
reset
guitar tuner
Tab Pro tools
  • play this tab
  • loop segment
  • change instrument
  • show fretboard
  • metronome
×
Best way to learn
"Half Full Glass Of Wine"
Autoscroll
slow
fast
+/-
esc
set tempo
stop
Contributor
STUDIO VERSION
&
****LIVE VERSION****



G||-------| X5
D||-------|
A||-----9-|
E||10-10--|

G||-----------------------|
D||--10-------------------|
A||------10-------8--10---|
E||--------8--11----------|

G||-------| X5
D||-------|
A||-----9-|
E||10-10--|

G||-----------------------|
D||--10-------------------|
A||------10-------8--10---|
E||--------8--11----------|

G||-----------------------------------|
D||-----------------------------------|
A||-----------------------------------|
E||--10-10-10---10-10--10--10---10----|

G||-------| X5
D||-------|
A||-----9-|
E||10-10--|

G||-----------------------------------|
D||-----------------------------------|
A||-----------------------------------|
E||--10-10-10---10-10--10--10---10----|

G||-----------------------------------|
D||-----------------------------------|
A||----10-9---11---13--11--10--9------|
E||-10--------------------------------|

G||-----------------------------------|
D||-----------------------------------|
A||-----------------------------------|
E||-10-10-10-10-10-10-10-10-10-10-10--|


G||-----------------------------------|X2
D||-----------------------------------|
A||-----------------------------------|
E||--10-10-10---10-10--10--10---10----|

G||-----------------------------------|
D||-----------------------------------|
A||-----------------------------------|
E||-10-10-10-10-10-10-10-10-10-10-10--|

G||-------| X5
D||-------|
A||-----9-|
E||10-10--|

G||-----------------------|
D||--10-------------------|
A||------10-------8--10---|
E||--------8--11----------|


G||-------| X5
D||-------|
A||-----9-|
E||10-10--|

G||-----------------------|
D||--10-------------------|
A||------10-------8--10---|
E||--------8--11----------|

G||------------|
D||------------|X8
A||--------8/12|
E||-10-6-8-----|

G||---------------|
D||---------------|
A||---------------|
E||-8888-9999-----|

G||-------| X5
D||-------|
A||-----9-|
E||10-10--|

G||-----------------------|
D||--10-------------------|
A||------10-------8--10---|
E||--------8--11----------|

G||-------| X5
D||-------|
A||-----9-|
E||10-10--|

G||-----------------------|
D||--10-------------------|
A||------10-------8--10---|
E||--------8--11----------|

G||-----------------------------------|
D||-----------------------------------|
A||-----------------------------------|
E||--10-10-10---10-10--10--10---10----|

G||-------| X5
D||-------|
A||-----9-|
E||10-10--|

G||-----------------------------------|
D||-----------------------------------|
A||-----------------------------------|
E||--10-10-10---10-10--10--10---10----|

G||-----------------------|
D||--10-------------------|
A||------10-------8--10---|
E||--------8--11----------|

G||-----------------------------------|
D||-----------------------------------|
A||-----------------------------------|
E||-10-10-10-10-10-10-10-10-10-10-10--|

G||-------| X5
D||-------|
A||-----9-|
E||10-10--|

G||-----------------------------------|
D||-----------------------------------|X10
A||-----------------------------------|
E||--10-10-10---10-10--10--10---10----|


*******************IMPRO************** LIVE VERSION*************IMPRO**************

G||-----------------------------------|
D||-----------------------------------|X10
A||----------12----------12-----------|
E||--10-10-10---10-10--10--10---10----|

G||--------------------------------------|
D||--------------------------------------|
A||-555555555555555555*------------------|
E||---------------------------10/5-------|


G||---------------------------------------------------------|
D||---------------------------------------------------------|X10
A||-55-55-55-55-77-77-77-77----55-55-55-55-77-77-77-77------|
E||---------------------------------------------------8/7/5-|

**********IMPRO***********END OF IMPRO LIVE VERSION**********IMPRO**************

(BACK TO STUDIO & LIVE VERSION)
G||-----------------------------------|
D||-----------------------------------|
A||-----------------------------------|
E||--10-10-10---10-10--10--10---10----|

G||-------| X5
D||-------|
A||-----9-|
E||10-10--|

G||-----------------------|
D||--10-------------------|
A||------10-------8--10---|
E||--------8--11----------|

G||-------| X5
D||-------|
A||-----9-|
E||10-10--|

G||-----------------------|
D||--10-------------------|
A||------10---------------|
E||--------8--11----------|

G||------------|
D||------------|X8
A||--------8/12|
E||-10-6-8-----|

G||--------------------------------------------|
D||--------------------------------------------|
A||--------------------------------------------|
E||-8888888-10101010-131313-101010-88888-7777--|

**********END OF LIVE VERSION***********END OF LIVE VERSION**************

G||--------------------------------------------|
D||--------------------------------------------|
A||--------------------------------------------|
E||-8888888-10101010-131313-101010-88888-7777--|
                                                     X5
G||--------------------------------------------|
D||--------------------------------------------|
A||--------------------------------------------|
E||-8888888-55555--77777-11-11-11-11--88888----|



BY YONATHAN GARFIAS
@YONATHANGARFIAS
comments
print report bad tab
1 comment total.
0 reply
nxaca wrote on August 1 2013, 03:39 pm

wanna hear that live version

I want to post or [tab]
guest
You may want to rate the tab now too:
select rating
Please do not post tabs as comments. Select "correction" instead!