Oops, an error
Loading. Please wait.

Its Not Meant To Be Tab

version 1
version 1

Acoustic

Interactive

13,765 views 75 this week
6 commentsread comments
1 2 3 4 5
x 14
add to favorites
launch autoscroll
font size
0
reset
how to read this tab
guitar tuner
Autoscroll
slow
fast
+/-
esc
set tempo
stop
Help us to improve Ultimate-Guitar.com Take our survey!
×
Author
Song: It's Not Meant To Be
Artist: Tame Impala
Album: Innerspeaker
Tabbed by Pat Shelley


Standard Tuning

This tab combines the bass line and the lead for the intro. Use your thumb to play the 
bass line in the first bar in the low E string.

e|--------------------------------|--------------------------------|
B|---3-------3-------3-------3----|---5-------5-------6-------5----|
G|-------5-------5-------5-------5|-------5-------5-------5-------5|
D|--------------------------------|---5-----------------------5----|
A|--------------------------------|-------------------3------------|
E|---3---------------5-------6----|--------------------------------|

e|--------------------------------|--------------------------------|
B|---3-------3-------3-------3----|---3-------3-------3-------3----|
G|-------3-------3-------3-------3|-------3-------3-------3-------3|
D|---3-------2-------0------------|---2-------0--------------------|
A|---------------------------3----|---------------3---1-------0----|
E|--------------------------------|--------------------------------|


[Verse]
Am        D Am D  Am         D Am D
I wanted her,     I wanted her
    Am              D     Am              D
But she doesn't like  the life that I lead
Am              D    Am              D
She doesn't like the life that I lead
Am               D Am               D
Doesn't like sand  stuck on her feet
   Am            D Am          D
Or sitting around  smoking weed
Am               D      Am            D
I must seem more like a friend in need


[Pre-Chorus]
      D                         G
And I boast that it is meant to be but in all honesty


[Chorus]
F G F
G              D        C  F
I don't have a hope in hell
F               G       F G  D   C F
I'm happy just to watch her  move     And in all honesty

F G F
G              D        C  F
I don't have a hope in hell
F               G       F G  D   C F
I'm happy just to watch her  move

These patterns remain the same for the following choruses and verse followed by the 
outro which is the same as the intro.
Suggest correction
comments
print report bad tab
6 comments total. Showing first comments.
0 reply
andiloveher 34 Jan 10, 2014 08:24 PM

should be a whole step up.https://www.youtube.com/watch?v=2uGEKB5BJo4

0 reply
David-Argentina 171 Feb 28, 2015 09:14 PM

I think this is more easy to play
|---------------------------------|---------------------------
|----3-------3-------3-------3----|---------------------------
|-------5-------5-------5-------5-|---9-----9-----9----9------
|---------------------------------|------10---10----10----10--
|--------------------0-------1----|---10---------------10-----
|----3----------------------------|---------------8-----------

|--------------------------------|--------------------------------|
|---3-------3-------3-------3----|---3-------3-------3-------3----|
|-------3-------3-------3-------3|-------3-------3-------3-------3|
|---3-------2-------0------------|---2-------0--------------------|
|---------------------------3----|---------------3---1-------0----|
|--------------------------------|--------------------------------|

|---------------------------------|----------------------------
|----3-------3-------3-------3----|----------------------------
|-------5-------5-------5-------5-|---9-----9-----10-----10----
|---------------------------------|------10---10-----10-----10-
|--------------------0-------1----|---10-----------------10----
|----3----------------------------|---------------8------------

|--------------------------------|--------------------------------|
|---3-------3-------3-------3----|---3-------3-------3-------3----|
|-------3-------3-------3-------3|-------3-------3-------3-------3|
|---3-------2-------0------------|---2-------0--------------------|
|---------------------------3----|---------------3---1-------0----|
|--------------------------------|--------------------------------|
anyway thanks for your tab!

0 reply
keyrat 84 May 31, 2015 04:33 PM, edited on June 2 2015, 12:18 pm

I was wrong.

guest
You may want to rate the tab now too:
select rating
Wanna post a correction for this tab? Suggest correction