Oops, an error
Loading. Please wait.

Its Not Meant To Be Bass Tab

version 1
version 1

Whole song

Interactive

7,050 views 15 this week
2 commentsread comments
1 2 3 4 5
not so good
x 17
add to favorites
launch autoscroll
font size
0
reset
guitar tuner
Tab Pro tools
  • play this tab
  • loop segment
  • change instrument
  • show fretboard
  • metronome
×
Best way to learn
"Its Not Meant To Be"
Autoscroll
slow
fast
+/-
esc
set tempo
stop
i'm not a bass player but i picked this up from the song.

G--0-23/12-/7/12-10-9-7-5/9-75-32-0-----------------------------------|
D---------------------------------------------------------------------|
A---------------------------------------------------------------------|
E---------------------------------------------------------------------|

/= slide

thats the intro
i have'nt figured out the rest yet
let me know how i went
comments
print report bad tab
2 comments total.
+1 reply
Bassguitarist01 wrote on November 22 2010, 11:19 am

Nice, good hearing.

These are the right notes, however, it's not very relaxing to play like that, with all the sliding up and down :p

How i think is best to play:

|-----------------------------------
|--------17----17151412--14-12------
|10-1213----17---------15-----151312
|-----------------------------------

I think with this way you will have a easy hand position and the warm bass sound.

0 reply
rominap_93 wrote on May 20 2015, 11:57 am

G|--------------------------------
D|-------5----5-3-2-0---2-0-------
A|----------3---------3-----3-1-0-
E|--3-5-6-------------------------

I want to post or [tab]
guest
You may want to rate the tab now too:
select rating
Please do not post tabs as comments. Select "correction" instead!