Oops, an error
Loading. Please wait.

Its Not Meant To Be Bass Tab

version 3
version 3

Whole song

Interactive

5,368 views 15 this week
1 commentread comment
1 2 3 4 5
excellent!
x 17
add to favorites
launch autoscroll
font size
0
reset
guitar tuner
Autoscroll
slow
fast
+/-
esc
set tempo
stop
Help us to improve Ultimate-Guitar.com Take our survey!
×
Author
Difficulty
intermediate
G||-----------/12*--12-10-9-7-5-9-7----------|
D||---5*--7-8-----12---------------9-8-7-5*--|X10
A||------------------------------------------|
E||------------------------------------------|

G||-----------------|
D||-------12*-------|
A||--12*------------|
E||-----------------|x4

G||-------7-------7--------|
D||------5-7-0---5-7-0-----|
A||---5-7-----5-7-----5*---|x3
E||------------------------|

G||-----------------------------------------------------|
D||-----------------------------------------------------|
A||---55555-8888-555555-8888-10101010-5555--77778888555-|
E||-----------------------------------------------------|x2

G||-------7-------7--------|
D||------5-7-0---5-7-0-----|
A||---5-7-----5-7-----5*---|x4
E||------------------------|

G||-----------------------------------------------------|
D||-----------------------------------------------------|
A||---55555-8888-555555-8888-10101010-5555--77778888555-|
E||-----------------------------------------------------|x2

G||------------------------------------------------------------------------|
D||--12/5-8-11-8-5-8-11-8-5-8-5-3-5-7-8-7-8-11-7-8-11-8-7-5-3-5-7-5-7-8-12*|
A||------------------------------------------------------------------------|
E||------------------------------------------------------------------------|

G||-----------------|
D||-------12*-------|
A||--12*------------|
E||-----------------|x5


G||-----------/12*--12-10-9-7-5-9-7----------|
D||---5*--7-8-----12---------------9-8-7-5*--|X10
A||------------------------------------------|
E||------------------------------------------|

BY YONATHANGARFIAS
@YONATHANGARFIAS
Suggest correction
comments
print report bad tab
1 comment total.
0 reply
fonsdavid 39 wrote on May 24 2016, 11:44 am

G||------------12---12-10-9-7-5-9-7----------|
D||---5---7-8-----12---------------10-8-7-5--|
A||------------------------------------------|
E||------------------------------------------|

Almost...

guest
You may want to rate the tab now too:
select rating
Please do not post tabs as comments. Select "correction" instead!