Oops, an error
Loading. Please wait.

Keep On Lying Bass

version 2
version 2

Whole song

4,921 views 15 this week
4 commentsread comments
1 2 3 4 5
x 25
add to favorites
launch autoscroll
font size
0
reset
guitar tuner
×
Best way to learn
"Keep On Lying"
Autoscroll
slow
fast
+/-
esc
set tempo
stop
Author
Difficulty
  follow
novice
G||----------------------------------------------------|
D||----------------------------------------------------|
A||-------------13131313------------------13131313-----|
E||-131313131313--------1313131313--151515-------------|


G||--------------------------------------------------------------|
D||--------------------------------------------------------------|
A||-------------13131313-----------------------------------------|
E||-131313131313--------1313131313-151515161616181819------------|


G||----------------------------------------------------|
D||----------------------------------------------------|
A||-------------13131313------------------13131313-----|
E||-131313131313--------1313131313--151515-------------|

G||--------------------------------------------------------------|
D||--------------------------------------------------------------|
A||-------------13131313-----------------------------------------|
E||-131313131313--------1313131313-151515161616181820------------|


G||----------------------------|X2
D||----------------------------|
A||----------------------------|
E||--16161615161820------------|

G||----------------------------|X10
D||----------------------------|
A||----------------------------|
E||1515161618-22/20------------|

G||----------------------------------------------------|
D||----------------------------------------------------|
A||-------------13131313------------------13131313-----|
E||-131313131313--------1313131313--151515-------------|

G||------------------------------------------------------------|
D||------------------------------------------------------------|
A||-------------13131313---------------------------------------|
E||-131313131313--------1313131313-1515151616161818------------|


G||-----------------------------------------------------------|
D||-----------------------------------------------------------|
A||-------------13131313--------------------------------------|
E||-131313131313--------1313131313--151515-1818--1515---------|


G||-------------------------------------------------------------------| X3
D||-------------------------------------------------------------------|
A||---13/15/17-19-17*--13/15/17-21-20*--13/15/17-19-17-2018171417-----|
E||-13---------------13---------------13-------------------------18-20|

G||-------------------------------------------------------------------| 
D||-------------------------------------------------------------------|
A||---13/15/17-21-20*--13/15-22-21-19*--13/15/17-19-17-2018171417-----|
E||-13---------------13---------------13-------------------------18-20|

G||-------------------------------------------------------------------| X6
D||-------------------------------------------------------------------|
A||---13/15/17-19-17*--13/15/17-21-20*--13/15/17-19-17-2018171417-----|
E||-13---------------13---------------13-------------------------18-20|

G||------------------------------------------------------|
D||------------------------------------------------------|
A||-------------13131313------------------13131313-------|
E||-131313131313--------1313131313--151515--------13-----|


G||--------------------------------------------------------------|
D||--------------------------------------------------------------|
A||-------------13131313-----------------------------------------|
E||-131313131313--------1313131313-151515161616181819------------|

...

Suggest correction
comments
print report bad tab
4 comments total. Showing first comments.
0 reply
fatima.torresla 10 Apr 19, 2013 09:53 AM

Good!!!!!!!!!!!!!!!!!!!!!!!!!!!!!!!

+4 reply
CraigWazHere 51 Sep 02, 2013 06:58 AM

couldnt you have just put the tab up mainly onto the A string? its hard to play it like that when your frets can hardly even reach 22

0 reply
cooper.hallam 36 Feb 02, 2016 10:34 PM

Clearly wrong... Ridiculous putting 20th frets on an E. This guy clearly doesn't play bass. I'd be surprised if he even owns one.

guest
You may want to rate the tab now too:
select rating
Wanna post a correction for this tab? Suggest correction