Oops, an error
Loading. Please wait.

Led Zeppelin Bass Tab

version 2
version 2

Whole song

1,965 views 1 this week
no commentswrite comment
1 2 3 4 5
excellent!
x 15
add to favorites
launch autoscroll
font size
0
reset
guitar tuner
Autoscroll
slow
fast
+/-
esc
set tempo
stop
Help us to improve Ultimate-Guitar.com Take our survey!
×
Author
Difficulty
intermediate
G||---------------------------------------------------|
D||---------------------------9-7------------7h9------|
A||---5---5---5---5---5---5------7-5/---5-7h9------5--| 
E||----5h7-5h7-5h7-5h7-5h7-5h7-------5h7--------5h7---|

G||---------------------------------------------------|
D||---------------------------------------------7h9---|
A||---5---5---5---5---5---5----999/7-5---5h7-7h9------| 
E||----5h7-5h7-5h7-5h7-5h7-5h7--------5h7-------------|


G||-------------------------7h9---7--|
D||-----------------7h99h7h9---7h9---|
A||-1111111-999-1111-----------------|
E||----------------------------------|

G||---------------------------------------------------|
D||---------------------------9-7------------7h9------|
A||---5---5---5---5---5---5------7-5/---5-7h9------5--| 
E||----5h7-5h7-5h7-5h7-5h7-5h7-------5h7--------5h7---|

G||---------------------------------------------------|
D||---------------------------------------------7h9---|
A||---5---5---5---5---5---5----999/7-5---5h7-7h9------| 
E||----5h7-5h7-5h7-5h7-5h7-5h7--------5h7-------------|

G||-------------------------7h9---7--|
D||-----------------7h99h7h9---7h9---|
A||-1111111-999-1111-----------------|
E||----------------------------------|

G||-------------------------|
D||-------------------------|
A||---5--5--5--5--5--5--5---| 
E||----57-57-57-57-57-57----|

G||-----------------------------------------------|
D||---------------------------9-7------------7h9--|
A||---5---5---5---5---5---5------7-5/---5-7h9-----| 
E||----5h7-5h7-5h7-5h7-5h7-5h7-------5h7----------|

G||---------------------------------------------------|
D||---------------------------------------------7h9---|
A||---5---5---5---5---5---5----999/7-5---5h7-7h9------| 
E||----5h7-5h7-5h7-5h7-5h7-5h7--------5h7-------------|

G||------------------|
D||------------------|
A||-1111111-999-1111-|
E||------------------|

G||--------------------------------|
D||---------------------------9-7--|
A||---5---5---5---5---5---5--------| 
E||----5h7-5h7-5h7-5h7-5h7-5h7-----|

G||-----------------1212121212--------7h9---7|
D||---------------------------7h99h7h9---7h9-|
A||-1111111-999-1111-------------------------|
E||------------------------------------------|

G||-----------------------------------------------|
D||---------------------------9-7------------7h9--|
A||---5---5---5---5---5---5------7-5/---5-7h9-----| 
E||----5h7-5h7-5h7-5h7-5h7-5h7-------5h7----------|

G||------------------|
D||------------------|
A||-1111111-999-1111-|
E||------------------|

G||--------------------------------|
D||--------------------------------|
A||---5---5---5---5---5---5--------| 
E||----5h7-5h7-5h7-5h7-5h7-5h7-----|


G||-----------------12---------7h9---7|
D||--------------------7h99h7h9---7h9-|
A||-1111111-999-1111------------------|
E||-----------------------------------|

G||---------------------------77--------------------|
D||--------------------------------------------7h9--|
A||---5---5---5---5---5---5--------7-5/---5-7h9-----| 
E||----5h7-5h7-5h7-5h7-5h7-5h7---------5h7----------|



BY YONATHANGARFIAS
@YONATHANGARFIAS
Suggest correction
comments
print report bad tab
guest
You may want to rate the tab now too:
select rating
Wanna post a correction for this tab? Suggest correction