Oops, an error
Loading. Please wait.

Led Zeppelin Tab

version 2
version 2

Whole song

2,697 views 6 this week
1 commentread comment
1 2 3 4 5
excellent!
x 7
add to favorites
launch autoscroll
font size
0
reset
how to read this tab
guitar tuner
Autoscroll
slow
fast
+/-
esc
set tempo
stop
Help us to improve Ultimate-Guitar.com Take our survey!
×
Contributor
Difficulty
novice
                          Tame Impala - Led Zeppelin
                  bonus track from their 2012 album Lonerism

Intro:
Guitar:
e|---------------------------------------------------------|
B|-5.--3.--5-5-3.--5-/7--7.----5.--3.--5-5-3.--5-/7--7.----|
G|-5.--4.--5-5-4.--5-/7--7.----5.--4.--5-5-4.--5-/7--7.----| x2
D|---------------------------------------------------------|
A|---------------------------------------------------------|
E|---------------------------------------------------------|


Main riff:
Guitar:
e|---------------------------------------------------------|
B|-5.--3.--5-5-3.--5-/7--7.----5.--3.--5-5-3.--5-/7--7.----|
G|-5.--4.--5-5-4.--5-/7--7.----5.--4.--5-5-4.--5-/7--7.----|      \         \
D|---------------------------------------------------------|       \         \
A|---------------------------------------------------------|        \         \
E|---------------------------------------------------------|         |         |
                                                                     | x2      |
e|--------------------------------------------------------------|    |         |
B|-5.--3.--5-5-3.--5-/7--7.--7.--7-\5----3.--5-5-3.--5-/7--7.---|   /          |
G|-5.--4.--5-5-4.--5-/7--7.--7.--7-\5----4.--5-5-4.--5-/7--7.---|  /           |
D|--------------------------------------------------------------| /            |
A|--------------------------------------------------------------|              |
E|--------------------------------------------------------------|              |
                                                                               | x2
e|-10.--10-\8-----10.--10-\8-----10.--10-\8---12-12-12--7-7----|               |
B|-12.--12-\10----12.--12-\10----12.--12-\10--13-13-13--8-8----|               |
G|-------------------------------------------------------------|               |
D|-------------------------------------------------------------|               |
A|-------------------------------------------------------------|               |
E|-------------------------------------------------------------|               |
                                                                               |
e|-10.--10-\8-----10.--10-\8----------------------------------|                |
B|-12.--12-\10----12.--12-\10---------------------------------|               /
G|-----------------------------------7-9-7-9-7---7-9-7---7----|              /
D|-------------------------------7h9-----------9-------9------|             /
A|------------------------------------------------------------|
E|------------------------------------------------------------|


Pre-verse:
Guitar:
e|---------------------------------------------------------|
B|-5.--3.--5-5-3.--5-/7--7.----5.--3.--5-5-3.--5-/7--7.----|
G|-5.--4.--5-5-4.--5-/7--7.----5.--4.--5-5-4.--5-/7--7.----|
D|---------------------------------------------------------|
A|---------------------------------------------------------|
E|---------------------------------------------------------|

e|-------------------------------------------------------5h7p5--|
B|-5.--3.--5-5-3.--5-/7--7.----5.--3.--5-5-3.--5-/7--7.---------|
G|-5.--4.--5-5-4.--5-/7--7.----5.--4.--5-5-4.--5-/7--7.---------|
D|--------------------------------------------------------------|
A|--------------------------------------------------------------|
E|--------------------------------------------------------------|


Verse 1:
"Senses taking over, thought to set me free"
Guitar:
e|---------------------------------------------------------|
B|-5.--3.--5-5-3.--5-/7--7.----5.--3.--5-5-3.--5-/7--7.----|
G|-5.--4.--5-5-4.--5-/7--7.----5.--4.--5-5-4.--5-/7--7.----|
D|---------------------------------------------------------|
A|---------------------------------------------------------|
E|---------------------------------------------------------|

"I tried to get up, but it was pouring down on me"
e|--------------------------------------------------------------|
B|-5.--3.--5-5-3.--5-/7--7.--7.--7-\5----3.--5-5-3.--5-/7--7.---|
G|-5.--4.--5-5-4.--5-/7--7.--7.--7-\5----4.--5-5-4.--5-/7--7.---|
D|--------------------------------------------------------------|
A|--------------------------------------------------------------|
E|--------------------------------------------------------------|

"Keeps on getting deeper, desperately to be"
e|------------------------------------------------------------5h7p5--|
B|-5.--3.--5-5-3.--5-/7--7.--5h7p5--5.--3.--5-5-3.--5-/7--7.---------|
G|-5.--4.--5-5-4.--5-/7--7.---------5.--4.--5-5-4.--5-/7--7.---------|
D|-------------------------------------------------------------------|
A|-------------------------------------------------------------------|
E|-------------------------------------------------------------------|

"Said there's some guy interested in dragging it out of me"
e|--------------------------------------------------------------|
B|-5.--3.--5-5-3.--5-/7--7.--7.--7-\5----3.--5-5-3.--5-/7--7.---|
G|-5.--4.--5-5-4.--5-/7--7.--7.--7-\5----4.--5-5-4.--5-/7--7.---|
D|--------------------------------------------------------------|
A|--------------------------------------------------------------|
E|--------------------------------------------------------------|

"Oooh, this is what I..."
e|-10.--10-\8-----10.--10-\8-----10.--10-\8-----10.--10-\8-----|
B|-12.--12-\10----12.--12-\10----12.--12-\10----12.--12-\10----|
G|-------------------------------------------------------------|
D|-------------------------------------------------------------|
A|-------------------------------------------------------------|
E|-------------------------------------------------------------|

"...need"
e|---------------------------------------------------------|
B|-5.--3.--5-5-3.--5-/7--7.----5.--3.--5-5-3.--5-/7--7.----|
G|-5.--4.--5-5-4.--5-/7--7.----5.--4.--5-5-4.--5-/7--7.----|
D|---------------------------------------------------------|
A|---------------------------------------------------------|
E|---------------------------------------------------------|

"Ooh"
e|-10.--10-\8-----10.--10-\8-----10.--10-\8---12-12-12--7-7----|
B|-12.--12-\10----12.--12-\10----12.--12-\10--13-13-13--8-8----|
G|-------------------------------------------------------------|
D|-------------------------------------------------------------|
A|-------------------------------------------------------------|
E|-------------------------------------------------------------|

"Tell me you're in love to let it show"
e|-10.--10-\8-----10.--10-\8----------------------------------|
B|-12.--12-\10----12.--12-\10---------------------------------|
G|-----------------------------------7-9-7-9-7---7-9-7---7----|
D|-------------------------------7h9-----------9-------9------|
A|------------------------------------------------------------|
E|------------------------------------------------------------|


Verse 2:
"Just got going, started, I was far enough to see"
Guitar:
e|---------------------------------------------------------|
B|-5.--3.--5-5-3.--5-/7--7.----5.--3.--5-5-3.--5-/7--7.----|
G|-5.--4.--5-5-4.--5-/7--7.----5.--4.--5-5-4.--5-/7--7.----|
D|---------------------------------------------------------|
A|---------------------------------------------------------|
E|---------------------------------------------------------|

"Better than to get just what a stranger did to me, is it 'cause I..."
e|--------------------------------------------------------------|
B|-5.--3.--5-5-3.--5-/7--7.--7.--7-\5----3.--5-5-3.--5-/7--7.---|
G|-5.--4.--5-5-4.--5-/7--7.--7.--7-\5----4.--5-5-4.--5-/7--7.---|
D|--------------------------------------------------------------|
A|--------------------------------------------------------------|
E|--------------------------------------------------------------|

"...love? Is it 'cause I don't? Well, I just don't..."
e|-10.--10-\8-----10.--10-\8-----10.--10-\8-----10.--10-\8-----|
B|-12.--12-\10----12.--12-\10----12.--12-\10----12.--12-\10----|
G|-------------------------------------------------------------|
D|-------------------------------------------------------------|
A|-------------------------------------------------------------|
E|-------------------------------------------------------------|

"...know, keep asking..."
e|---------------------------------------------------------|
B|-5.--3.--5-5-3.--5-/7--7.----5.--3.--5-5-3.--5-/7--7.----|
G|-5.--4.--5-5-4.--5-/7--7.----5.--4.--5-5-4.--5-/7--7.----|
D|---------------------------------------------------------|
A|---------------------------------------------------------|
E|---------------------------------------------------------|

"...me, gotta let me see, keep asking"
e|-10.--10-\8-----10.--10-\8-----10.--10-\8---12-12-12--7-7----|
B|-12.--12-\10----12.--12-\10----12.--12-\10--13-13-13--8-8----|
G|-------------------------------------------------------------|
D|-------------------------------------------------------------|
A|-------------------------------------------------------------|
E|-------------------------------------------------------------|

"Was there anywhere to let it go?"
e|-10.--10-\8-----10.--10-\8----------------------------------|
B|-12.--12-\10----12.--12-\10---------------------------------|
G|-----------------------------------7-9-7-9-7---7-9-7---7----|
D|-------------------------------7h9-----------9-------9------|
A|------------------------------------------------------------|
E|------------------------------------------------------------|


Outro:
Guitar:
e|---------------------------------------------------------|
B|-5.--3.--5-5-3.--5-/7--7.----5.--3.--5-5-3.--5-/7--7.----|
G|-5.--4.--5-5-4.--5-/7--7.----5.--4.--5-5-4.--5-/7--7.----| x2
D|---------------------------------------------------------|
A|---------------------------------------------------------|
E|---------------------------------------------------------|

e|-------------------------------------------------------5h7p5--|
B|-5.--3.--5-5-3.--5-/7--7.----5.--3.--5-5-3.--5-/7--7.---------|
G|-5.--4.--5-5-4.--5-/7--7.----5.--4.--5-5-4.--5-/7--7.---------|
D|--------------------------------------------------------------|
A|--------------------------------------------------------------|
E|--------------------------------------------------------------|

e|---------------------------/7.-/7.-5/7\5---------------------------------------|
B|-5.--3.--5-5-3.--5-/7--7.-----------------5.--3.--5-5-3.--5-/7--7.--/7.-5/7\5--|
G|-5.--4.--5-5-4.--5-/7--7.-----------------5.--4.--5-5-4.--5-/7--7.-------------|
D|-------------------------------------------------------------------------------|
A|-------------------------------------------------------------------------------|
E|-------------------------------------------------------------------------------|

e|---------------------------/7.-5/7\5--------------------------------------|
B|-5.--3.--5-5-3.--5-/7--7.-------------5.--3.--5-5-3.--5-/7--7.--7.-7.-7.--|
G|-5.--4.--5-5-4.--5-/7--7.-------------5.--4.--5-5-4.--5-/7--7.--7.-7.-7.--|
D|--------------------------------------------------------------------------|
A|--------------------------------------------------------------------------|
E|--------------------------------------------------------------------------|

e|---------------------------------------------------------|
B|-5.--3.--5-5-3.--5-/7--7.----5.--3.--5-5-3.--5-/7--7.----|
G|-5.--4.--5-5-4.--5-/7--7.----5.--4.--5-5-4.--5-/7--7.----|
D|---------------------------------------------------------|
A|---------------------------------------------------------|
E|---------------------------------------------------------|

Fade out.



************************************

| /   slide up
| \   slide down
| h   hammer-on
| p   pull-off
| ~   vibrato
| +   harmonic
| x   Mute note
| .   staccato
| b   Bend
| pb  Pre-bend
| br  Bend release
| pbr Pre-bend release
| brb Bend release bend

************************************
Suggest correction new What's this?
You can suggest a correction to this tab. Community and Mods will review your correction and vote to approve or reject it.
comments
print report bad tab
1 comment total.
0 reply
acamhi 105 wrote on January 24 2015, 11:25 am, edited at 11:26 am

sounds perfect to me! great tab!

guest
You may want to rate the tab now too:
select rating
Please do not post tabs as comments. Select "correction" instead!