Oops, an error
Loading. Please wait.

Mind Mischief Bass Tab

version 1
version 1

Whole song

18,743 views 78 this week
2 commentsread comments
1 2 3 4 5
accurate
x 11
add to favorites
launch autoscroll
font size
0
reset
guitar tuner
Autoscroll
slow
fast
+/-
esc
set tempo
stop
Help us to improve Ultimate-Guitar.com Take our survey!
×
Author
Difficulty
novice
Tame Impala ///// Mind Mischief ///// Lonerism 

Bass Tab


Chorus/Main riff. [0:24]
G||----------------------------------------------------|        
D||---------11h13-11-----------------------------------|
A||--9-11\-----------11p9h11-9---------------9----9-11-|
E||--------------------------------------9h11-9h11-----|

G||-------------------------------------------------|
D||---11h13-11--------------------------------------|
A||------------11--13--9---------------9----9-11----|
E||--------------------------------9h11-9h11--------|

G||----------------------------------------------|
D||---11h13-11-----------------------------------|
A||------------11p9h11-9---------------9----9-11-|
E||--------------------------------9h11-9h11-----|

G||-------------------------------------------------|
D||---11h13-11--------------------------------------|
A||------------11--13--9---------------9----9-11----|
E||--------------------------------9h11-9h11--------|


        [1:12]
G||----------------------------------------------------|
D||---------11h13-11-----------------------------------|
A||--9-11\-----------11p9h11-9---------------9----9-11-|
E||--------------------------------------9h11-9h11-----|

G||-------------------------------------------------|
D||---11h13-11--------------------------------------|
A||------------11--13--9---------------9----9-11----|
E||--------------------------------9h11-9h11--------|

G||-------------------------------------------|
D||---11h13-11--------------------------------|
A||------------11---9---------------9----9-11-|
E||-----------------------------9h11-9h11-----|

G||-----------------------------------------|
D||---11h13-11------------------------------|
A||------------11--13--9---------------9----|
E||--------------------------------9h11-----|


        [1:59]
G||-------------------------------------------------|
D||---------11h13-11--------------------------------|
A||--9-11\-----------11---9---------------9----9-11-|
E||-----------------------------------9h11-9h11-----|

G||-------------------------------------------------|
D||---11h13-11--------------------------------------|
A||------------11--13--9---------------9----9-11----|
E||--------------------------------9h11-9h11--------|

G||-------------------------------------------------|
D||---------11h13-11--------------------------------|
A||--9-11\-----------11---9---------------9----9-11-|
E||-----------------------------------9h11-9h11-----|

G||-----------------------------------|
D||---11h13-11------------------------|
A||------------11--13--9--------------|
E||-----------------------------------|                 

G||-------------------------------------------------|
D||---------11h13-11--------------------------------|
A||--9-11\-----------11---9---------------9----9-11-|
E||-----------------------------------9h11-9h11-----|

G||-------------------------------------------------|
D||---11h13-11--------------------------------------|
A||------------11--13--9---------------9----9-11----|
E||--------------------------------9h11-9h11--------|

G||-------------------------------------------------|
D||---------11h13-11--------------------------------|
A||--9-11\-----------11---9---------------9----9-11-|
E||-----------------------------------9h11-9h11-----|

G||-----------------------------------------|
D||---11h13-11------------------------------|
A||------------11--13--9---------------9----|
E||--------------------------------9h11-----|


G||-----------------------------|
D||--9--9--99-9---8--8--88-8--8-|
A||-----------------------------|
E||-----------------------------|

G||-------------------------------------|
D||-9--9--11h13-11-9--8--8--88-8--8-----|
A||-------------------------------------|
E||-------------------------------------|
  
G||-----------------------------|
D||--9--9--99-9---8--8--88-8--8-|
A||-----------------------------|
E||-----------------------------|

G||----------------------------|
D||--9--9--9p8h9p8h9p6---------|
A||-----------------------8----|
E||----------------------------|

G||-------------------------------------------------|
D||---------11h13-11--------------------------------|
A||--9-11\-----------11---9---------------9----9-11-|
E||-----------------------------------9h11-9h11-----|

G||-------------------------------------------------|
D||---11h13-11--------------------------------------|
A||------------11--13--9---------------9----9-11----|
E||--------------------------------9h11-9h11--------|

G||-------------------------------------------------|
D||---------11h13-11--------------------------------|
A||--9-11\-----------11---9---------------9----9-11-|
E||-----------------------------------9h11-9h11-----|

G||-----------------------------------|
D||---11h13-11------------------------|
A||------------11--13--9--------------|
E||-----------------------------------|


        [3:38]
G||-----------------------------|
D||--9--9--99-9---8--8--88-8--8-|
A||-----------------------------|
E||-----------------------------|

G||-------------------------------------|
D||-9--9--11h13-11-9--8--8--88-8--8-----|
A||-------------------------------------|
E||-------------------------------------|
  
G||-----------------------------|
D||--9--9--99-9---8--8--88-8--8-|
A||-----------------------------|
E||-----------------------------|

G||----------------------------|
D||--9--9--9p8h9p8h9p6---------|
A||-----------------------8----|
E||----------------------------|

G||-----------------------------|
D||--9--9--99-9---8--8--88-8--8-|
A||-----------------------------|
E||-----------------------------|

G||-------------------------------------|
D||-9--9--11h13-11-9--8--8--88-8--8-----|
A||-------------------------------------|
E||-------------------------------------|
  
G||-----------------------------|
D||--9--9--99-9---8--8--88-8--8-|
A||-----------------------------|
E||-----------------------------|

G||--------13-------------------|
D||--11h13-----11h13-11---------|
A||---------------------11---9--|
E||-----------------------------|




My best interpretation of the song. enjoy. 
Suggest correction
comments
print report bad tab
2 comments total.
0 reply
SorefaChina 10 wrote on June 3 2014, 09:12 am, edited at 09:15 am

.

-2 reply
SorefaChina 10 wrote on June 3 2014, 09:15 am

Chorus/Main riff. [0:24]
G||----------------------------------------|
D||---------11h13-11--9-11--7h9-7----------|
A||--9-11\-------------------------9-------|
E||----------------------------------------|

guest
You may want to rate the tab now too:
select rating
Wanna post a correction for this tab? Suggest correction