Oops, an error
Loading. Please wait.

Mind Mischief Bass Tab

version 2
version 2

Whole song

7,188 views 39 this week
2 commentsread comments
1 2 3 4 5
accurate
x 19
add to favorites
launch autoscroll
font size
0
reset
guitar tuner
Tab Pro tools
  • play this tab
  • loop segment
  • change instrument
  • show fretboard
  • metronome
×
Best way to learn
"Mind Mischief"
Autoscroll
slow
fast
+/-
esc
set tempo
stop
Contributor
0:24
G||-----------------------|
D||-------12-10-9---------|
A||--9/11--------9-11-9/11| 
E||-----------------------|X5

1:12
G||-----------------------|
D||-------12-10-9---------|
A||--9/11--------9-11-9/11| 
E||-----------------------|X5

2:00
G||-------------------------|
D||-------12-10-9-----------|
A||--9/11--------9-9-11-9/11| 
E||-------------------------|X4

G||-----------------------|
D||-------12-10-9---------|
A||--9/11--------9-11-9/11| 
E||-----------------------|X5

G||----------------------------------------|
D||--12-12-1212-11-1010----12-10-9---------|
A||--------------------9/11-------9-11-9/11| 
E||----------------------------------------|

G||-------------------------|
D||-------12-10-9-----------|
A||--9/11--------9-9-11-9/11| 
E||-------------------------|X6

G||----------------------------------------|
D||--12-12-1212-11-1010----12-10-9---------|
A||--------------------9/11-------9-11-9/11| X5
E||----------------------------------------|





BY YONATHAN GARFIAS
@YONATHANGARFIAS
comments
print report bad tab
2 comments total.
+1 reply
samblehhh wrote on August 7 2014, 01:47 pm

I'm pretty sure that those Ds on the 12th fret of the D string are supposed to be Eb so 13th fret.

+1 reply
rogerrei1 wrote on October 13 2014, 11:35 pm

Clearly wrong. Stop cheating, dude. You clearly have a **** ton of accounts to rate your own tabs, but 90% of them are completely wrong. Please, stop doing that.

I want to post or [tab]
guest
You may want to rate the tab now too:
select rating
Please do not post tabs as comments. Select "correction" instead!