Oops, an error
Loading. Please wait.

Music To Walk Home By Bass Tab

3,465 views 21 this week
2 commentsread comments
1 2 3 4 5
excellent!
x 16
add to favorites
launch autoscroll
font size
0
reset
guitar tuner
Tab Pro tools
  • play this tab
  • loop segment
  • change instrument
  • show fretboard
  • metronome
×
Best way to learn
"Music To Walk Home By"
Autoscroll
slow
fast
+/-
esc
set tempo
stop
Contributor
Difficulty
intermediate
G||----55-----4-5----55|77------4-5---------|77------4-5----45---|
D||-------5-7----------|--5-577-------55----|--5-577-------------|
A||--------------4-4---|-----------33-------|-----------33-------|
E||--------------------|--------------------|--------------------|


G|77------4-5---------|
D|--5-577----44--55---|
A|--------------------|
E|--------------------|
    
G||-777----------------|---55-5h75h7--77-----4-5-----|
D||--------------------|77--------------5-577------55|
A||----555--333--------|-------------------------33--|X2
E||--------------------|-----------------------------|


G|----------------------9-----------------------------|
D|-----------------------7-5--------55-----9999-9--12*|
A|--555---222/3337-555------3-5-3-55--33-33-----------|
E|-----333-----------------------3--------------------|


G|5--55-55-55--77--4-5---4-5-|
D|---------------55---77-----|
A|-------------------------33|
E|---------------------------|


G|77------4-5------777--------777-999-121212-151515-1717|
D|--5-577----55-55----23-33-33--------------------------|
A|------------------------------------------------------|
E|------------------------------------------------------|


G|---------------------|
D|---------5*------5*--|
A|---5*--5*--5*--5*----|
E|-----5*- ----5*------|
 
G|--------------------| X5 G|---------------------------------------------|
D|--------------5-7---|    D|-5-------------------------------------------|
A|5---0--2-4-5--------|    A|--4-5--5*--3*--5*--0*--5*--3*--5*--3*--5*--0*|
E|--------------------|    E|---------------------------------------------|

G|---------------------------------5-7*-------------------------7*-----|
D|---------7*----------------------------------------------------------|
A|--3-5-3*---5*--3*--5*--0*--3-5-3*----5*--3*--5*--0*--5*--3**---------|
E|---------------------------------------------------------------------|



G|-------------|
D|-------------| X8
A|---5--3------|
E|-------------|

G|------------------------|
D|------------------------|
A|--3-3-------------------| X3
E|---1-1-3/5-0*---5-0*----|

....


G|---------------------|
D|---------5*------5*--|
A|---5*--5*--5*--5*----|
E|-----5*- ----5*------|


G|--------------------| X3 G|----------------------|
D|--------------5-7---|    D|----------------------| X8
A|5---0--2-4-5--------|    A|--2-45454----2-4545---|
E|--------------------|    E|---------5*--------53*|



BY YONATHANGARFIAS
T:@YONATHANGARFIAS
comments
print report bad tab
2 comments total.
-1 reply
MUSICWALK wrote on August 1 2013, 03:03 pm

great tab!

-1 reply
nxaca wrote on August 1 2013, 03:35 pm

great song and tab man

I want to post or [tab]
guest
You may want to rate the tab now too:
select rating
Please do not post tabs as comments. Select "correction" instead!