Oops, an error
Loading. Please wait.

My Lover Mother Nature Tab

version 1
version 1

Whole song

1,772 views 6 this week
no commentswrite comment
1 2 3 4 5
accurate
x 1
add to favorites
launch autoscroll
font size
0
reset
how to read this tab
guitar tuner
Tab Pro tools
  • play this tab
  • loop segment
  • change instrument
  • show fretboard
  • metronome
Autoscroll
slow
fast
+/-
esc
set tempo
stop
Contributor
Tame Impala - My Lover Mother Nature

Tabbed By Richard
----------------------------------------------------------------------------

  Intro                              (Riff 1)          
e:------0-0-0-0-0-0-0-0-0-0-0-0-0-0-|---0-0-0-0-0-0-0-0-0-0-0-0-0-0-|
b:-----1--0-0-0-0-0-1-1-1-0-0-0-0-0-|---1-0-0-0-0-0-1-1-1-0-0-0-0-0-|
g:----2---0-1-1-1-0-2-2-2-0-1-1-1-0-|-2-2-0-1-1-1-0-2-2-2-0-1-1-1-0-|
D:---2------2-2-2---2-2-2---2-2-2---|-2-2---2-2-2---2-2-2---2-2-2---|  X7
A:-0--------2-2-2---0-0-0---2-2-2---|-0-0---2-2-2---0-0-0---2-2-2---|
E:----------0-0-0-----------0-0-0---|-------0-0-0-----------0-0-0---|
                                      
 The timing and strumming for 'Riff 1' varies slightly between repetitions.
 I add a 'Am-E-C-E' in every now and then as well.


  (Riff 2)                          (Riff 3)
e:-------------------------------0-|-2-2-2-0-|
b:-2---2-----2---2---2-------2---0-|-2-2-2-0-|
g:-0-------0-------0---0---0---0-1-|-3-3-3-1-|
D:-2-2---2-----2---------2-------2-|-4-4-4-2-|  X8
A:-0-----------------------------2-|-4-4-4-2-|
E:-------------------------------0-|-2-2-2-0-|

  (Riff 4)
e:-----------------------------------------------------------------|
b:-----------------------------------------------------------------|
g:-6-6^----6-8-9-8h9p8-4-6-4-6-6^----6-8-9-8h9p8-4-6-4-4-4^--4-4^--|
D:-----------------------------------------------------------------|
A:-----------------------------------------------------------------|
E:-----------------------------------------------------------------|

e:----------------------------------------------------|
b:----------------------------------------------------|
g:-4-6-7-6h7p6-2-4-2-4-4^--4-4^--/16^-16^-16^-16^-16/-|
D:----------------------------------------------------|
A:----------------------------------------------------|
E:----------------------------------------------------|


  - (Riff 1) X6 (Solo 1 begins at 01:06) 

  - (Riff 2) X1 (Solo 1 ends at 01:30)

  - (Riff 3) X16

  - (Riff 1) X2 (with Mandolin 1 X4 played 'underneath')
                (Solo 2 begins at 02:13)

  - (Riff 1) X4 (with Mandolin 2 X8 played 'underneath')


e:-0-0--0-0-0-0-0-0-0-0--0-0-0-|
b:-2-2--2-2-2-2-1-1-1-1--1-1-1-|
g:-0-0--0-0-0-0-0-0-0-0--0-0-0-|
D:-2-2--2-2-2-2-2-2-2-2--2-2-2-|  (with Mandolin 3 X1 played 'underneath')
A:-0-0--0-0-0-0-0-0-0-0--0-0-0-|
E:-----------------------------|


  (Mandolin 1)    (Mandolin 2)              (Mandolin 3)
e:-5-5--7-7-7-7-|-5--5-5-5--5--7--7-7-7--7-|-5-5--5-5-5-5--0-0-0-0--0-0-0-|
b:-5-5--9-9-9-9-|-5--5-5-5--5--9--9-9-9--9-|-5-5--5-5-5-5--2-2-2-2--2-2-2-|
g:-5-5--9-9-9-9-|-5--5-5-5--5--9--9-9-9--9-|-6-6--6-6-6-6--0-0-0-0--0-0-0-|
D:--------------|--------------------------|------------------------------|
A:--------------|--------------------------|------------------------------|
E:--------------|--------------------------|------------------------------|

  The mandolin parts tabbed for guitar are obviously only an interpretation,
  I don't own a mandolin so I can't say they're 100% correct. The A7 in
  'Mandolin 3' could also alternatively be played like an A but with 5th
  fret on the 'D ' string. Strum them near the bridge.


  Bass tabbed for Guitar (02:59)
e:---------------------------|-----------------------------|
b:---------------------------|-----------------------------|
g:---------------------------|-----------------------------|
D:---------------------------|--------------4--------------|
A:---4--------4--------4-----|---4--------4---4------4-----|
E:-2---2-0--2---2-0--2---2-0-|-2---2-0--2-------0--2---2-0-|

  After the end of Solo 2 at 02:59 there's not much guitar until solo 3 
  starts at 03:36 so you can play the bass part until then.

  
  (03:26)
e:-2------2~-|
b:-2------2~-|
g:-3---------|
D:(4)--------|
A:-----------|
E:-----------|


  Solo 1 (01:06-01:30)
e:----------------------------------------------------------------------|
b:-----------------------------------17/15-13h15-12h13-10h12------------|
g:-----------------------------------------------------------12--10/9---|
D:-7/9/7----------------------------------------------------------------|
A:---------5/7p5-5/9--/10-10/9-7~---------------------------------------|
E:----------------------------------------------------------------------|

e:-------------------------------------------|
b:-----------------10/12--10/12--12------12~-|
g:-------10--9~------------------------------|
D:-10h12-------------------------------------|
A:-------------------------------------------|
E:-------------------------------------------|


  Solo 2 (02:13-02:59)
e:----------------------------------------------------------------------|
b:-14^---12-10-9^----7-9-7-9^-9-7---8^-7----------2---------------------|
g:--------------------------------9-------6-6h8^-/3--/6^--4-4^-6-8-/9^--|
D:----------------------------------------------------------------------|
A:----------------------------------------------------------------------|
E:----------------------------------------------------------------------|

e:----------------------------------------------------------------------|
b:-------------/14^-----------------------------------------------------|
g:-6-7-9-7-6-6------13-11--14^--14^/11-/11---13/14^--14/--11------------|
D:-----------------------------------------------------------13/11--8p7-|
A:----------------------------------------------------------------------|
E:----------------------------------------------------------------------|

e:---------------------------------------------------| 
b:---------------------------------------------------| Something similar
g:---------------------------------------------------| to Riff 4 is played
D:-h8/9p8h9p8h9-8--h9p8h9p8h9p8/9----p8h9p8h9p8h9p8/-| 'underneath' solo 3
A:---------------------------------------------------| but it is very faint.
E:---------------------------------------------------|

  
  Outro/Solo 3 (03:36-04:00)
e:--------------------------------------------------------|----------------|
b:----------------------------------------------------14^/|----------------|
g:-13-13-13-13-13--13-15^-13-13-13-13--13-13-13-13-13-----|-15-15-15-15-15-|
D:--------------------------------------------------------|----------------|
A:--------------------------------------------------------|----------------|
E:--------------------------------------------------------|----------------|
                                                   (03:42)^
e:------------------------------------------------------------------------|
b:-----------14^----------------------------------------------------------|
g:--15-15-15-----15^-15^-15^-15^-15^--15p13-15p13-15p13-15p13-15p13-15p13-|
D:------------------------------------------------------------------------|
A:------------------------------------------------------------------------|
E:------------------------------------------------------------------------|

e:-------------------------------------------------------------------|
b:-------------------16p14-------------16p14-------------16p14-------|
g:-15p13-15p13-15P13-15----15p13-15p13-15----15p13-15p13-15----15p13-|
D:-------------------------------------------------------------------|
A:-------------------------------------------------------------------|
E:-------------------------------------------------------------------|

e:----------------------------------------------|
b:-------16p14-------16p14-------16p14----------|
g:-15p13-15----15p13-15----15p13-15----15p13-15-|
D:----------------------------------------------|
A:----------------------------------------------|
E:----------------------------------------------|

 (03:26-03:42)          (03:42-03:57)
e:-----------|         |----------------|
b:-----------|         |----------------|
g:-3-3-3-3-3-|         |-11-11-11-11-11-|
D:-4-4-4-4-4-|  X4     |-11-11-11-11-11-|  X12
A:-4-4-4-4-4-|         |-9--9--9--9--9--|
E:-2-2-2-2-2-|         |----------------|

These two 'F#' chords are played 'underneath' solo 3.


                           (04:01)
                          e:-----|
                          b:-----|
 The song ends with...    g:-3-3-|
                          D:-4-4-|
                          A:-4-4-|
                          E:-2-2-|
comments
We did not receive enough feedback on this tab! Please rate:
print report bad tab
1 2 3 4 5
I want to post or [tab]
guest
You may want to rate the tab now too:
select rating
Please do not post tabs as comments. Select "correction" instead!