Oops, an error
Loading. Please wait.

New Person Same Old Mistakes bass

10,706 views 111 this week
2 commentsread comments
1 2 3 4 5
x 7
add to favorites
×
Save as Personal and add changes to this tab that will be seen only by you. Learn more ›
×
You can save this tab as Personal to edit and correct it or add notes. All changes will be seen only by you. Learn more »
launch autoscroll
font size
0
reset
guitar tuner
edit
Autoscroll
slow
fast
+/-
esc
set tempo
stop
Author
Difficulty
intermediate
New Person, Same Old Mistakes - Tame Impala
                     Currents - 2015
~~~~~~~~~~~~~~~~~~~~~~~~~~~~~~~~~~~~~~~~~~~
D standard tuning (Whole step down)

REALLY listen for timing, tabbing this out was pretty weird I tell ya what

~~~~~~~~~~~~~~~~~~~~~~~~~~~~~~~~~~~~~~~~~~~~~~~~~~~~~~~~~~~~~~~~~~~~~~~~~~~~~~~~~~~~~~~~~~~~~

F|----|------------------|------------------|------------------|-------------------|
C|----|------------------|------------------|------------------|-------------------|
G|--5-|----6--5-3--1-3-5-|----6--5-3--1-3-5-|----6--5-3--1-3-5-|-5\8-6--5-3--1-3-5-| [Main Riff]
D|----|------------------|------------------|------------------|-------------------|
    ^
play once
~~~~~~~~~~~~~~~~~~~~~~~~~~~~~~~~~~~~~~~~~~~~~~~~~~~~~~~~~~~~~~~~~~~~~~~~~~~~~~~~~~~~~~~~~~~~~

[Main Riff] x3

  I can just..           How could..         But they..         Or see it..
F|----------------------|------------------|------------------|-------------------|
C|----------------------|------------------|------------------|-------------------|
G|--5-----6--5-3--1-3-5-|----6--5-3--1-3-5-|----6--5-3--1-3-5-|-5\8-6--5-3--1-3-5-|
D|----------------------|------------------|------------------|-------------------|

  Feeling it..        All that I..       One by one..       I tried but..
F|------------------|------------------|------------------|-------------------|
C|------------------|------------------|------------------|-------------------|
G|----6--5-3--1-3-5-|----6--5-3--1-3-5-|----6--5-3--1-3-5-|-5\8-6--5-3--1-3-5-|
D|------------------|------------------|------------------|-------------------|
  
  All the signs..     Two sides of..     When I breathe..   Going with what..
F|------------------|------------------|------------------|------------------|
C|------------------|------------------|------------------|------------------|
G|----6--5-3--1-3-5-|----6--5-3--1-3-5-|----6--5-3--1-3-5-|----6--5-3--1-3---|
D|------------------|------------------|------------------|------------------|

~short pause~

[Chorus] [Main Riff] x3

  Finally taking..       I know you..       I know that..      Maybe fake's..
F|------------------|------------------|------------------|------------------|
C|------------------|------------------|------------------|------------------|
G|----6--5-3--1-3-5-|----6--5-3--1-3-5-|----6--5-3--------|------------------| 
D|------------------|------------------|------------------|------------------|

  Point is I..         I'm thinking..       I'm thinking..          Soon to be...
F|--------------------|--------------------|-----------------------|---------------------|
C|--------------------|--------------------|-----------------------|---------------------|
G|--5-------1--1-3\---|----5-------1--1-3\-|----5----6--5-3--1-3-5-|-5\8-6--5-3-3\6----5-|
D|--------3-----------|----------3---------|-----------------------|---------------------|

  Knowing it all..   Going with what..
F|------------------|----3--5\7--------|
C|------------------|------------------|
G|------1--1\3------|------------------|
D|----3-------------|------------------|

~short pause~

[Chorus] ([Main Riff] w/ slight variation below x2)

F|----------------------|------------------|------------------|-------------------|
C|----------------------|------------------|------------------|-------------------|
G|--5-----6--5-3--1-3-5-|----6--5-3--1-3-5-|----6--5-3--1-3-5-|-6\8-6--5-3--------|
D|----------------------|------------------|------------------|-------------------|

*~*

[Bridge] (did my best here lol)

F|-------------------------------------\14---14-14-14-14-|
C|-------------------------------------------------------|
G|--8------8\11---11-11-11-11--x-9--x-x------------------|
D|-----6h8-----------------------------------------------|

F|--------------------------------------------------11---|
C|-------------------------------------------------------|
G|--8--6-8\--11-----11---11-----11-----11---9----9-------|
D|---------------11-----------------11---------9---------|

F|---------------------------------11\15--15-18~--|
C|------------------------------------------------|
G|--8---xx-8\11---11-11---11---9------------------|
D|------------------------------------------------|

F|--------------------------------------------------11\14-|
C|--------------------------------------------------------|
G|--8----8\--11-----11---11-----11-----11---9----9--------|
D|-----8---------11-----------------11---------9----------|

repeat whole thing twice I think, again I'm not so sure, so suggestions are very welcome.

*~*

~longer pause~

F|----------------------|------------------|------------------|---------------------|
C|----------------------|------------------|------------------|---------------------|
G|--5-----6--5-3--1-3-5-|----6--5-3--1-3-5-|----6--5-3--1-3-5-|-5\8-6--5-3-3\6----5-| 
D|----------------------|------------------|------------------|---------------------|

F|------------------|------------------|
C|------------------|------------------|
G|----6--5-3--1-3-5-|----6--5-3--1-3---|
D|------------------|------------------|

~short pause~

[Chorus] ([main riff] w/ new variations)

F|----------------------|------------------|--------------------------------------|
C|----------------------|------------------|------------------------------------8-|
G|--5-----6--5-3--1-3-5-|----6--5-3--1-3-5-|----6--5-3-3\6--8--1---3-\6h8--8p6----|
D|----------------------|------------------|--------------------------------------| 

F|----------------------|------------------|--------------------------------------|
C|----------------------|------------------|--------------------------------------|
G|--5-----6--5-3--1-3-5-|----6--5-3--1-3-5-|----6--5-3-3\6--8--1---3-\6h8---------|
D|----------------------|------------------|--------------------------------------|

F|----------------------|------------------|--------------------------------------|
C|----------------------|------------------|------------------------------------8-|
G|--5-----6--5-3--1-3-5-|----6--5-3--1-3-5-|----6--5-3-3\6--8--1---3-\6h8--8p6----|
D|----------------------|------------------|--------------------------------------| 
 
F|----------------------|------------------|--------------------------------------|
C|----------------------|------------------|--------------------------------------|
G|--5-----6--5-3--1-3-5-|----6--5-3--1-3-5-|----6--5-3-3\6--8--1---3--------------|
D|----------------------|------------------|--------------------------------------|

F|----------------------|------------------|--------------------------------------|
C|----------------------|------------------|------------------------------------8-|
G|--5-----6--5-3--1-3-5-|----6--5-3--1-3-5-|----6--5-3-3\6--8--1---3-\6h8--8p6----|
D|----------------------|------------------|--------------------------------------| 

and fade out

************************************

| x  Dead note
| h  Hammer-on
| p  Pull-off
| \  Slide down
| ~  Vibrato

************************************

            
            
Suggest correction
Creating personal tab
Creating personal tab
You can edit any tab online and save it as your Personal.

You can edit, replace or remove any tab part or add personal notes – all changes will be seen only by you.

Personal tabs can be accessed anytime from any device, even offline.
Learn more »
comments
print report bad tab
2 comments total.
0 reply
Challenger440 307 Jun 09, 2016 05:32 PM

No reason this shouldn't be in standard tuning....

guest
You may want to rate the tab now too:
select rating
Wanna post a correction for this tab? Suggest correction