Oops, an error
Loading. Please wait.

Remember Me Tab

version 1
version 1

Whole song

13,317 views 9 this week
1 commentread comment
1 2 3 4 5
x 4
add to favorites
launch autoscroll
font size
0
reset
how to read this tab
guitar tuner
×
Best way to learn
"Remember Me"
Autoscroll
slow
fast
+/-
esc
set tempo
stop
Author
Tame Impala - Remember Me
Awesome Cover by Blueboy
listen to the song for strumming pattern

[Intro]
    D                        C            G
e|--------------------------------------------------|
B|--------------------------------------------------|
G|--------------------------------------------------|
D|—-12-12-12-12-12-12-12-12—-10-10-10-10—-5-5-5-5-5-|
A|—-12-12-12-12-12-12-12-12—-10-10-10-10—-5-5-5-5-5-|
E|—-10-10-10-10-10-10-10-10—-8--8--8--8---3-3-3-3-3-|

    D                        C            G
e|------------------------------------------|
B|------------------------------------------|
G|------------------------------------------|
D|—-12-12-12-12-12-12-12-12—-10-10-10-10—-5-|
A|—-12-12-12-12-12-12-12-12—-10-10-10-10—-5-|
E|—-10-10-10-10-10-10-10-10—-8--8--8--8---3-|

[Verses]
    D                        C            G
e|--------------------------------------------------|
B|--------------------------------------------------|
G|--------------------------------------------------|
D|—-12-12-12-12-12-12-12-12—-10-10-10-10—-5-5-5-5-5-| x alot
A|—-12-12-12-12-12-12-12-12—-10-10-10-10—-5-5-5-5-5-|
E|—-10-10-10-10-10-10-10-10—-8--8--8--8---3-3-3-3-3-|

Remember Me, im the one who had your babies ahh
Remember Me, im the one who had your babies ahh
and thats basically the whole song
Suggest correction
comments
print report bad tab
1 comment total.
+1 reply
gahligahli 10 Aug 27, 2009 08:50 PM

Saw them play this at falls nearly a year ago, freakin awesome.

I use the barres d at 5th fret, c and g at 3.

Also, consider this, one of the small fills - D or an A like below:

------5------------------------------------------------------
------5-----------------------7br 5--------------------------
------6--------5 7p5 ---5h7p5--------------------------------
------7----5h7-------7---------------------------------------
------7------------------------------------------------------
------5------------------------------------------------------

guest
You may want to rate the tab now too:
select rating
Wanna post a correction for this tab? Suggest correction